  0
SECTION
  2
HEADER
  9
$ACADVER
  1
AC1015
  9
$ACADMAINTVER
 70
     6
  9
$DWGCODEPAGE
  3
ANSI_1252
  9
$INSBASE
 10
0.0
 20
0.0
 30
0.0
  9
$EXTMIN
 10
-650.0
 20
-65.0
 30
0.0
  9
$EXTMAX
 10
650.0
 20
0.0
 30
0.0
  9
$LIMMIN
 10
0.0
 20
0.0
  9
$LIMMAX
 10
420.0
 20
297.0
  9
$ORTHOMODE
 70
     0
  9
$REGENMODE
 70
     1
  9
$FILLMODE
 70
     1
  9
$QTEXTMODE
 70
     0
  9
$MIRRTEXT
 70
     1
  9
$LTSCALE
 40
1.0
  9
$ATTMODE
 70
     1
  9
$TEXTSIZE
 40
3.5
  9
$TRACEWID
 40
1.0
  9
$TEXTSTYLE
  7
Standard
  9
$CLAYER
  8
0
  9
$CELTYPE
  6
ByLayer
  9
$CECOLOR
 62
   256
  9
$CELTSCALE
 40
1.0
  9
$DISPSILH
 70
     0
  9
$DIMSCALE
 40
1.0
  9
$DIMASZ
 40
3.302
  9
$DIMEXO
 40
1.0
  9
$DIMDLI
 40
3.75
  9
$DIMRND
 40
0.0
  9
$DIMDLE
 40
0.0
  9
$DIMEXE
 40
1.0
  9
$DIMTP
 40
0.0
  9
$DIMTM
 40
0.0
  9
$DIMTXT
 40
3.5
  9
$DIMCEN
 40
2.5
  9
$DIMTSZ
 40
0.0
  9
$DIMTOL
 70
     0
  9
$DIMLIM
 70
     0
  9
$DIMTIH
 70
     1
  9
$DIMTOH
 70
     1
  9
$DIMSE1
 70
     0
  9
$DIMSE2
 70
     0
  9
$DIMTAD
 70
     1
  9
$DIMZIN
 70
     0
  9
$DIMBLK
  1

  9
$DIMASO
 70
     1
  9
$DIMSHO
 70
     1
  9
$DIMPOST
  1

  9
$DIMAPOST
  1

  9
$DIMALT
 70
     0
  9
$DIMALTD
 70
     3
  9
$DIMALTF
 40
0.0393700787
  9
$DIMLFAC
 40
1.0
  9
$DIMTOFL
 70
     1
  9
$DIMTVP
 40
0.0
  9
$DIMTIX
 70
     0
  9
$DIMSOXD
 70
     0
  9
$DIMSAH
 70
     0
  9
$DIMBLK1
  1

  9
$DIMBLK2
  1

  9
$DIMSTYLE
  2
ISO-25
  9
$DIMCLRD
 70
     0
  9
$DIMCLRE
 70
     0
  9
$DIMCLRT
 70
     0
  9
$DIMTFAC
 40
1.0
  9
$DIMGAP
 40
1.524
  9
$DIMJUST
 70
     0
  9
$DIMSD1
 70
     0
  9
$DIMSD2
 70
     0
  9
$DIMTOLJ
 70
     0
  9
$DIMTZIN
 70
     0
  9
$DIMALTZ
 70
     0
  9
$DIMALTTZ
 70
     0
  9
$DIMUPT
 70
     0
  9
$DIMDEC
 70
     2
  9
$DIMTDEC
 70
     2
  9
$DIMALTU
 70
     2
  9
$DIMALTTD
 70
     3
  9
$DIMTXSTY
  7
Standard
  9
$DIMAUNIT
 70
     0
  9
$DIMADEC
 70
     2
  9
$DIMALTRND
 40
0.0
  9
$DIMAZIN
 70
     0
  9
$DIMDSEP
 70
    44
  9
$DIMATFIT
 70
     3
  9
$DIMFRAC
 70
     0
  9
$DIMLDRBLK
  1

  9
$DIMLUNIT
 70
     2
  9
$DIMLWD
 70
    -2
  9
$DIMLWE
 70
    -2
  9
$DIMTMOVE
 70
     0
  9
$LUNITS
 70
     2
  9
$LUPREC
 70
     2
  9
$SKETCHINC
 40
1.0
  9
$FILLETRAD
 40
10.0
  9
$AUNITS
 70
     0
  9
$AUPREC
 70
     2
  9
$MENU
  1
.
  9
$ELEVATION
 40
0.0
  9
$PELEVATION
 40
0.0
  9
$THICKNESS
 40
0.0
  9
$LIMCHECK
 70
     0
  9
$CHAMFERA
 40
0.0
  9
$CHAMFERB
 40
0.0
  9
$CHAMFERC
 40
0.0
  9
$CHAMFERD
 40
0.0
  9
$SKPOLY
 70
     0
  9
$TDCREATE
 40
2459681.451592373
  9
$TDUCREATE
 40
2459681.409925706
  9
$TDUPDATE
 40
2459681.451611423
  9
$TDUUPDATE
 40
2459681.409944757
  9
$TDINDWG
 40
0.0000000116
  9
$TDUSRTIMER
 40
0.0000000116
  9
$USRTIMER
 70
     1
  9
$ANGBASE
 50
0.0
  9
$ANGDIR
 70
     0
  9
$PDMODE
 70
     0
  9
$PDSIZE
 40
-1.0
  9
$PLINEWID
 40
0.0
  9
$SPLFRAME
 70
     0
  9
$SPLINETYPE
 70
     6
  9
$SPLINESEGS
 70
     8
  9
$HANDSEED
  5
3B7
  9
$SURFTAB1
 70
     6
  9
$SURFTAB2
 70
     6
  9
$SURFTYPE
 70
     6
  9
$SURFU
 70
     6
  9
$SURFV
 70
     6
  9
$UCSBASE
  2

  9
$UCSNAME
  2

  9
$UCSORG
 10
0.0
 20
0.0
 30
0.0
  9
$UCSXDIR
 10
1.0
 20
0.0
 30
0.0
  9
$UCSYDIR
 10
0.0
 20
1.0
 30
0.0
  9
$UCSORTHOREF
  2

  9
$UCSORTHOVIEW
 70
     0
  9
$UCSORGTOP
 10
0.0
 20
0.0
 30
0.0
  9
$UCSORGBOTTOM
 10
0.0
 20
0.0
 30
0.0
  9
$UCSORGLEFT
 10
0.0
 20
0.0
 30
0.0
  9
$UCSORGRIGHT
 10
0.0
 20
0.0
 30
0.0
  9
$UCSORGFRONT
 10
0.0
 20
0.0
 30
0.0
  9
$UCSORGBACK
 10
0.0
 20
0.0
 30
0.0
  9
$PUCSBASE
  2

  9
$PUCSNAME
  2

  9
$PUCSORG
 10
0.0
 20
0.0
 30
0.0
  9
$PUCSXDIR
 10
1.0
 20
0.0
 30
0.0
  9
$PUCSYDIR
 10
0.0
 20
1.0
 30
0.0
  9
$PUCSORTHOREF
  2

  9
$PUCSORTHOVIEW
 70
     0
  9
$PUCSORGTOP
 10
0.0
 20
0.0
 30
0.0
  9
$PUCSORGBOTTOM
 10
0.0
 20
0.0
 30
0.0
  9
$PUCSORGLEFT
 10
0.0
 20
0.0
 30
0.0
  9
$PUCSORGRIGHT
 10
0.0
 20
0.0
 30
0.0
  9
$PUCSORGFRONT
 10
0.0
 20
0.0
 30
0.0
  9
$PUCSORGBACK
 10
0.0
 20
0.0
 30
0.0
  9
$USERI1
 70
     0
  9
$USERI2
 70
     0
  9
$USERI3
 70
     0
  9
$USERI4
 70
     0
  9
$USERI5
 70
     0
  9
$USERR1
 40
0.0
  9
$USERR2
 40
0.0
  9
$USERR3
 40
0.0
  9
$USERR4
 40
0.0
  9
$USERR5
 40
0.0
  9
$WORLDVIEW
 70
     1
  9
$SHADEDGE
 70
     3
  9
$SHADEDIF
 70
    70
  9
$TILEMODE
 70
     1
  9
$MAXACTVP
 70
    64
  9
$PINSBASE
 10
0.0
 20
0.0
 30
0.0
  9
$PLIMCHECK
 70
     0
  9
$PEXTMIN
 10
-650.0
 20
-290.0
 30
0.0
  9
$PEXTMAX
 10
650.0
 20
260.0
 30
0.0
  9
$PLIMMIN
 10
-751.1673151751
 20
-327.9377431907
  9
$PLIMMAX
 10
751.1673151751
 20
734.3190661479
  9
$UNITMODE
 70
     0
  9
$VISRETAIN
 70
     1
  9
$PLINEGEN
 70
     0
  9
$PSLTSCALE
 70
     1
  9
$TREEDEPTH
 70
  3020
  9
$CMLSTYLE
  2
Standard
  9
$CMLJUST
 70
     0
  9
$CMLSCALE
 40
20.0
  9
$PROXYGRAPHICS
 70
     1
  9
$MEASUREMENT
 70
     1
  9
$CELWEIGHT
370
    -1
  9
$ENDCAPS
280
     0
  9
$JOINSTYLE
280
     0
  9
$LWDISPLAY
290
     1
  9
$INSUNITS
 70
     4
  9
$HYPERLINKBASE
  1

  9
$STYLESHEET
  1

  9
$XEDIT
290
     1
  9
$CEPSNTYPE
380
     0
  9
$PSTYLEMODE
290
     1
  9
$FINGERPRINTGUID
  2
{247f210c-042c-4a8e-ab78-e12eba6c6b44}
  9
$VERSIONGUID
  2
{FAEB1C32-E019-11D5-929B-00C0DF256EC4}
  9
$EXTNAMES
290
     1
  9
$PSVPSCALE
 40
0.0
  9
$OLESTARTUP
290
     0
  0
ENDSEC
  0
SECTION
  2
CLASSES
  0
CLASS
  1
ACDBDICTIONARYWDFLT
  2
AcDbDictionaryWithDefault
  3
ObjectDBX Classes
 90
        0
280
     0
281
     0
  0
CLASS
  1
VISUALSTYLE
  2
AcDbVisualStyle
  3
ObjectDBX Classes
 90
     4095
280
     0
281
     0
  0
CLASS
  1
MATERIAL
  2
AcDbMaterial
  3
ObjectDBX Classes
 90
     1153
280
     0
281
     0
  0
CLASS
  1
SCALE
  2
AcDbScale
  3
ObjectDBX Classes
 90
     1153
280
     0
281
     0
  0
CLASS
  1
TABLESTYLE
  2
AcDbTableStyle
  3
ObjectDBX Classes
 90
     4095
280
     0
281
     0
  0
CLASS
  1
MLEADERSTYLE
  2
AcDbMLeaderStyle
  3
ACDB_MLEADERSTYLE_CLASS
 90
     4095
280
     0
281
     0
  0
CLASS
  1
SUN
  2
AcDbSun
  3
SCENEOE
 90
     1153
280
     0
281
     0
  0
CLASS
  1
ACDBPLACEHOLDER
  2
AcDbPlaceHolder
  3
ObjectDBX Classes
 90
        0
280
     0
281
     0
  0
CLASS
  1
LAYOUT
  2
AcDbLayout
  3
ObjectDBX Classes
 90
        0
280
     0
281
     0
  0
ENDSEC
  0
SECTION
  2
TABLES
  0
TABLE
  2
VPORT
  5
8
330
0
100
AcDbSymbolTable
 70
     1
  0
VPORT
  5
29
330
8
100
AcDbSymbolTableRecord
100
AcDbViewportTableRecord
  2
*Active
 70
     0
 10
0.0
 20
0.0
 11
1.0
 21
1.0
 12
0.0
 22
-32.5
 13
0.0
 23
0.0
 14
10.0
 24
10.0
 15
10.0
 25
10.0
 16
0.0
 26
0.0
 36
1.0
 17
0.0
 27
0.0
 37
0.0
 40
66.3
 41
20.0
 42
50.0
 43
0.0
 44
0.0
 50
0.0
 51
0.0
 71
     0
 72
   100
 73
     1
 74
     3
 75
     0
 76
     0
 77
     0
 78
     0
281
     0
 65
     1
110
0.0
120
0.0
130
0.0
111
1.0
121
0.0
131
0.0
112
0.0
122
1.0
132
0.0
 79
     0
146
0.0
  0
ENDTAB
  0
TABLE
  2
LTYPE
  5
5
330
0
100
AcDbSymbolTable
 70
     6
  0
LTYPE
  5
14
330
5
100
AcDbSymbolTableRecord
100
AcDbLinetypeTableRecord
  2
ByBlock
 70
     0
  3

 72
    65
 73
     0
 40
0.0
  0
LTYPE
  5
15
330
5
100
AcDbSymbolTableRecord
100
AcDbLinetypeTableRecord
  2
ByLayer
 70
     0
  3

 72
    65
 73
     0
 40
0.0
  0
LTYPE
  5
16
330
5
100
AcDbSymbolTableRecord
100
AcDbLinetypeTableRecord
  2
Continuous
 70
     0
  3
Solid line
 72
    65
 73
     0
 40
0.0
  0
LTYPE
  5
6E
330
5
100
AcDbSymbolTableRecord
100
AcDbLinetypeTableRecord
  2
HIDDEN
 70
     0
  3
Hidden __ __ __ __ __ __ __ __ __ __ __ __ __ __
 72
    65
 73
     2
 40
1.905
 49
1.27
 74
     0
 49
-0.635
 74
     0
  0
LTYPE
  5
6F
330
5
100
AcDbSymbolTableRecord
100
AcDbLinetypeTableRecord
  2
PHANTOM
 70
     0
  3
Phantom ______  __  __  ______  __  __  ______
 72
    65
 73
     6
 40
12.7
 49
6.35
 74
     0
 49
-1.27
 74
     0
 49
1.27
 74
     0
 49
-1.27
 74
     0
 49
1.27
 74
     0
 49
-1.27
 74
     0
  0
LTYPE
  5
70
330
5
100
AcDbSymbolTableRecord
100
AcDbLinetypeTableRecord
  2
CENTER
 70
     0
  3
Center ____ _ ____ _ ____ _ ____ _ ____ _ ____
 72
    65
 73
     4
 40
10.16
 49
6.35
 74
     0
 49
-1.27
 74
     0
 49
1.27
 74
     0
 49
-1.27
 74
     0
  0
LTYPE
  5
71
330
5
100
AcDbSymbolTableRecord
100
AcDbLinetypeTableRecord
  2
CENTERX2
 70
     0
  3
Center (2x) ________  __  ________  __  _____
 72
    65
 73
     4
 40
20.32
 49
12.7
 74
     0
 49
-2.54
 74
     0
 49
2.54
 74
     0
 49
-2.54
 74
     0
  0
LTYPE
  5
72
330
5
100
AcDbSymbolTableRecord
100
AcDbLinetypeTableRecord
  2
DOT2
 70
     0
  3
Dot (.5x) ........................................
 72
    65
 73
     2
 40
0.635
 49
0.0
 74
     0
 49
-0.635
 74
     0
  0
ENDTAB
  0
TABLE
  2
LAYER
  5
2
330
0
100
AcDbSymbolTable
 70
     1
  0
LAYER
  5
10
330
2
100
AcDbSymbolTableRecord
100
AcDbLayerTableRecord
  2
0
 70
     0
 62
     7
  6
Continuous
370
    -3
390
F
  0
ENDTAB
  0
TABLE
  2
STYLE
  5
3
330
0
100
AcDbSymbolTable
 70
     1
  0
STYLE
  5
11
330
3
100
AcDbSymbolTableRecord
100
AcDbTextStyleTableRecord
  2
Standard
 70
     0
 40
0.0
 41
1.0
 50
0.0
 71
     0
 42
3.5
  3
txt
  4

  0
ENDTAB
  0
TABLE
  2
VIEW
  5
6
330
0
100
AcDbSymbolTable
 70
     0
  0
ENDTAB
  0
TABLE
  2
UCS
  5
7
330
0
100
AcDbSymbolTable
 70
     0
  0
ENDTAB
  0
TABLE
  2
APPID
  5
9
330
0
100
AcDbSymbolTable
 70
     1
  0
APPID
  5
12
330
9
100
AcDbSymbolTableRecord
100
AcDbRegAppTableRecord
  2
ACAD
 70
     0
  0
ENDTAB
  0
TABLE
  2
DIMSTYLE
  5
A
330
0
100
AcDbSymbolTable
 70
     1
100
AcDbDimStyleTable
  0
DIMSTYLE
105
27
330
A
100
AcDbSymbolTableRecord
100
AcDbDimStyleTableRecord
  2
ISO-25
 70
     0
 41
2.5
 42
0.625
 43
3.75
 44
1.25
 73
     0
 74
     0
 77
     1
 78
     8
140
2.5
141
2.5
143
0.0393700787
147
0.625
171
     3
172
     1
178
     0
271
     2
272
     2
274
     3
278
    44
283
     0
284
     8
340
11
  0
ENDTAB
  0
TABLE
  2
BLOCK_RECORD
  5
1
330
0
100
AcDbSymbolTable
 70
     4
  0
BLOCK_RECORD
  5
1F
330
1
100
AcDbSymbolTableRecord
100
AcDbBlockTableRecord
  2
*Model_Space
340
22
  0
BLOCK_RECORD
  5
1B
330
1
100
AcDbSymbolTableRecord
100
AcDbBlockTableRecord
  2
*Paper_Space
340
1E
  0
BLOCK_RECORD
  5
23
330
1
100
AcDbSymbolTableRecord
100
AcDbBlockTableRecord
  2
*Paper_Space0
340
26
  0
BLOCK_RECORD
  5
1A6
330
1
100
AcDbSymbolTableRecord
100
AcDbBlockTableRecord
  2
*Paper_Space1
340
1A7
  0
BLOCK_RECORD
  5
1F9
330
1
100
AcDbSymbolTableRecord
100
AcDbBlockTableRecord
  2
*Paper_Space2
340
1FA
  0
BLOCK_RECORD
  5
25F
330
1
100
AcDbSymbolTableRecord
100
AcDbBlockTableRecord
  2
*Paper_Space3
340
260
  0
ENDTAB
  0
ENDSEC
  0
SECTION
  2
BLOCKS
  0
BLOCK
  5
20
330
1F
100
AcDbEntity
  8
0
100
AcDbBlockBegin
  2
*Model_Space
 70
     0
 10
0.0
 20
0.0
 30
0.0
  3
*Model_Space
  1

  0
ENDBLK
  5
21
330
1F
100
AcDbEntity
  8
0
100
AcDbBlockEnd
  0
BLOCK
  5
1C
330
1B
100
AcDbEntity
 67
     1
  8
0
100
AcDbBlockBegin
  2
*Paper_Space
 70
     0
 10
0.0
 20
0.0
 30
0.0
  3
*Paper_Space
  1

  0
ENDBLK
  5
1D
330
1B
100
AcDbEntity
 67
     1
  8
0
100
AcDbBlockEnd
  0
BLOCK
  5
24
330
23
100
AcDbEntity
  8
0
100
AcDbBlockBegin
  2
*Paper_Space0
 70
     0
 10
0.0
 20
0.0
 30
0.0
  3
*Paper_Space0
  1

  0
LINE
  5
189
330
23
100
AcDbEntity
  8
0
  6
Continuous
 62
     7
370
    25
100
AcDbLine
 10
24.0
 20
259.0
 30
0.0
 11
0.0
 21
259.0
 31
0.0
  0
LINE
  5
18A
330
23
100
AcDbEntity
  8
0
  6
Continuous
 62
     7
370
    25
100
AcDbLine
 10
0.0
 20
-249.5857864376
 30
0.0
 11
25.0
 21
-249.5857864376
 31
0.0
  0
LINE
  5
18B
330
23
100
AcDbEntity
  8
0
  6
Continuous
 62
     7
370
    25
100
AcDbLine
 10
24.0
 20
-290.0
 30
0.0
 11
24.0
 21
259.0
 31
0.0
  0
LINE
  5
18C
330
23
100
AcDbEntity
  8
0
  6
Continuous
 62
     7
370
    25
100
AcDbLine
 10
24.0
 20
-250.2928932188
 30
0.0
 11
1.0
 21
-250.2928932188
 31
0.0
  0
LINE
  5
18D
330
23
100
AcDbEntity
  8
0
  6
Continuous
 62
     7
370
    25
100
AcDbLine
 10
1.0
 20
260.0
 30
0.0
 11
1.0
 21
-290.0
 31
0.0
  0
LINE
  5
18E
330
23
100
AcDbEntity
  8
0
  6
Continuous
 62
     7
370
    25
100
AcDbLine
 10
25.0
 20
260.0
 30
0.0
 11
25.0
 21
-289.0
 31
0.0
  0
LINE
  5
18F
330
23
100
AcDbEntity
  8
0
  6
Continuous
 62
     7
370
    25
100
AcDbLine
 10
25.0
 20
260.0
 30
0.0
 11
24.0
 21
259.0
 31
0.0
  0
LINE
  5
190
330
23
100
AcDbEntity
  8
0
  6
Continuous
 62
     7
370
    25
100
AcDbLine
 10
0.0
 20
-289.0
 30
0.0
 11
0.0
 21
259.0
 31
0.0
  0
LINE
  5
191
330
23
100
AcDbEntity
  8
0
  6
Continuous
 62
     7
370
    25
100
AcDbLine
 10
1.0
 20
260.0
 30
0.0
 11
25.0
 21
260.0
 31
0.0
  0
LINE
  5
192
330
23
100
AcDbEntity
  8
0
  6
Continuous
 62
     7
370
    25
100
AcDbLine
 10
1.0
 20
-289.7071067812
 30
0.0
 11
24.0
 21
-289.7071067812
 31
0.0
  0
LINE
  5
193
330
23
100
AcDbEntity
  8
0
  6
Continuous
 62
     7
370
    25
100
AcDbLine
 10
24.0
 20
-290.0
 30
0.0
 11
1.0
 21
-290.0
 31
0.0
  0
LINE
  5
194
330
23
100
AcDbEntity
  8
0
  6
Continuous
 62
     7
370
    25
100
AcDbLine
 10
65.0
 20
259.0
 30
0.0
 11
25.0
 21
259.0
 31
0.0
  0
LINE
  5
195
330
23
100
AcDbEntity
  8
0
  6
Continuous
 62
     7
370
    25
100
AcDbLine
 10
64.0
 20
248.0
 30
0.0
 11
64.0
 21
260.0
 31
0.0
  0
LINE
  5
196
330
23
100
AcDbEntity
  8
0
  6
Continuous
 62
     7
370
    25
100
AcDbLine
 10
65.0
 20
259.0
 30
0.0
 11
65.0
 21
249.0
 31
0.0
  0
LINE
  5
197
330
23
100
AcDbEntity
  8
0
  6
Continuous
 62
     7
370
    25
100
AcDbLine
 10
25.0
 20
249.0
 30
0.0
 11
65.0
 21
249.0
 31
0.0
  0
LINE
  5
198
330
23
100
AcDbEntity
  8
0
  6
Continuous
 62
     7
370
    25
100
AcDbLine
 10
26.0
 20
260.0
 30
0.0
 11
26.0
 21
248.0
 31
0.0
  0
LINE
  5
199
330
23
100
AcDbEntity
  8
0
  6
Continuous
 62
     7
370
    25
100
AcDbLine
 10
26.0
 20
260.0
 30
0.0
 11
64.0
 21
260.0
 31
0.0
  0
LINE
  5
19A
330
23
100
AcDbEntity
  8
0
  6
Continuous
 62
     7
370
    25
100
AcDbLine
 10
64.0
 20
248.0
 30
0.0
 11
26.0
 21
248.0
 31
0.0
  0
ARC
  5
19B
330
23
100
AcDbEntity
  8
0
  6
Continuous
 62
     7
370
    25
100
AcDbCircle
 10
1.0
 20
259.0
 30
0.0
 40
0.9999999999999545
100
AcDbArc
 50
90.0
 51
180.0
  0
ARC
  5
19C
330
23
100
AcDbEntity
  8
0
  6
Continuous
 62
     7
370
    25
100
AcDbCircle
 10
24.125
 20
-249.4090097423
 30
0.0
 40
0.8926785535678453
100
AcDbArc
 50
261.9505330245
 51
348.578246341
  0
ARC
  5
19D
330
23
100
AcDbEntity
  8
0
  6
Continuous
 62
     7
370
    25
100
AcDbCircle
 10
0.875
 20
-249.4090097423
 30
0.0
 40
0.892678553567995
100
AcDbArc
 50
191.421753659
 51
278.0494669755
  0
ARC
  5
19E
330
23
100
AcDbEntity
  8
0
  6
Continuous
 62
     7
370
    25
100
AcDbCircle
 10
0.875
 20
-288.8232233047
 30
0.0
 40
0.8926785535679139
100
AcDbArc
 50
191.421753659
 51
278.0494669755
  0
ARC
  5
19F
330
23
100
AcDbEntity
  8
0
  6
Continuous
 62
     7
370
    25
100
AcDbCircle
 10
24.125
 20
-288.8232233047
 30
0.0
 40
0.8926785535678656
100
AcDbArc
 50
261.9505330245
 51
348.578246341
  0
ARC
  5
1A0
330
23
100
AcDbEntity
  8
0
  6
Continuous
 62
     7
370
    25
100
AcDbCircle
 10
24.0
 20
-289.0
 30
0.0
 40
1.000000000000057
100
AcDbArc
 50
270.0
 51
360.0
  0
ARC
  5
1A1
330
23
100
AcDbEntity
  8
0
  6
Continuous
 62
     7
370
    25
100
AcDbCircle
 10
1.0
 20
-289.0
 30
0.0
 40
1.000000000000057
100
AcDbArc
 50
180.0
 51
270.0
  0
ARC
  5
1A2
330
23
100
AcDbEntity
  8
0
  6
Continuous
 62
     7
370
    25
100
AcDbCircle
 10
64.0
 20
259.0
 30
0.0
 40
0.9999999999999432
100
AcDbArc
 50
360.0
 51
90.0
  0
ARC
  5
1A3
330
23
100
AcDbEntity
  8
0
  6
Continuous
 62
     7
370
    25
100
AcDbCircle
 10
64.0
 20
249.0
 30
0.0
 40
0.9999999999999858
100
AcDbArc
 50
270.0
 51
0.0
  0
ARC
  5
1A4
330
23
100
AcDbEntity
  8
0
  6
Continuous
 62
     7
370
    25
100
AcDbCircle
 10
26.0
 20
249.0
 30
0.0
 40
1.000000000000028
100
AcDbArc
 50
180.0
 51
270.0
  0
ARC
  5
1A5
330
23
100
AcDbEntity
  8
0
  6
Continuous
 62
     7
370
    25
100
AcDbCircle
 10
26.0
 20
259.0
 30
0.0
 40
0.9999999999999538
100
AcDbArc
 50
90.0
 51
180.0
  0
VIEWPORT
  5
3AF
330
23
100
AcDbEntity
  8
0
100
AcDbViewport
 10
0.0
 20
0.0
 30
0.0
 40
205.6
 41
156.0
 68
     1
 69
     1
 12
0.0
 22
-32.5
 13
0.0
 23
0.0
 14
10.0
 24
10.0
 15
10.0
 25
10.0
 16
0.0
 26
0.0
 36
1.0
 17
0.0
 27
0.0
 37
0.0
 42
50.0
 43
0.0
 44
0.0
 45
1006.1089494163
 50
0.0
 51
0.0
 72
   100
 90
   557152
  1

281
     0
 71
     1
 74
     0
110
0.0
120
0.0
130
0.0
111
1.0
121
0.0
131
0.0
112
0.0
122
1.0
132
0.0
 79
     0
146
0.0
  0
ENDBLK
  5
25
330
23
100
AcDbEntity
  8
0
100
AcDbBlockEnd
  0
BLOCK
  5
1A8
330
1A6
100
AcDbEntity
  8
0
100
AcDbBlockBegin
  2
*Paper_Space1
 70
     0
 10
0.0
 20
0.0
 30
0.0
  3
*Paper_Space1
  1

  0
LINE
  5
1DC
330
1A6
100
AcDbEntity
  8
0
  6
Continuous
 62
     7
370
    25
100
AcDbLine
 10
-1.0
 20
-290.0
 30
0.0
 11
-1.0
 21
260.0
 31
0.0
  0
LINE
  5
1DD
330
1A6
100
AcDbEntity
  8
0
  6
Continuous
 62
     7
370
    25
100
AcDbLine
 10
-25.0
 20
-249.5857864376
 30
0.0
 11
0.0
 21
-249.5857864376
 31
0.0
  0
LINE
  5
1DE
330
1A6
100
AcDbEntity
  8
0
  6
Continuous
 62
     7
370
    25
100
AcDbLine
 10
-24.0
 20
259.0
 30
0.0
 11
-24.0
 21
-290.0
 31
0.0
  0
LINE
  5
1DF
330
1A6
100
AcDbEntity
  8
0
  6
Continuous
 62
     7
370
    25
100
AcDbLine
 10
0.0
 20
259.0
 30
0.0
 11
-24.0
 21
259.0
 31
0.0
  0
LINE
  5
1E0
330
1A6
100
AcDbEntity
  8
0
  6
Continuous
 62
     7
370
    25
100
AcDbLine
 10
-1.0
 20
-250.2928932188
 30
0.0
 11
-24.0
 21
-250.2928932188
 31
0.0
  0
LINE
  5
1E1
330
1A6
100
AcDbEntity
  8
0
  6
Continuous
 62
     7
370
    25
100
AcDbLine
 10
0.0
 20
259.0
 30
0.0
 11
0.0
 21
-289.0
 31
0.0
  0
LINE
  5
1E2
330
1A6
100
AcDbEntity
  8
0
  6
Continuous
 62
     7
370
    25
100
AcDbLine
 10
-25.0
 20
260.0
 30
0.0
 11
-1.0
 21
260.0
 31
0.0
  0
LINE
  5
1E3
330
1A6
100
AcDbEntity
  8
0
  6
Continuous
 62
     7
370
    25
100
AcDbLine
 10
-25.0
 20
260.0
 30
0.0
 11
-24.0
 21
259.0
 31
0.0
  0
LINE
  5
1E4
330
1A6
100
AcDbEntity
  8
0
  6
Continuous
 62
     7
370
    25
100
AcDbLine
 10
-25.0
 20
-289.0
 30
0.0
 11
-25.0
 21
260.0
 31
0.0
  0
LINE
  5
1E5
330
1A6
100
AcDbEntity
  8
0
  6
Continuous
 62
     7
370
    25
100
AcDbLine
 10
-24.0
 20
-289.7071067812
 30
0.0
 11
-1.0
 21
-289.7071067812
 31
0.0
  0
LINE
  5
1E6
330
1A6
100
AcDbEntity
  8
0
  6
Continuous
 62
     7
370
    25
100
AcDbLine
 10
-1.0
 20
-290.0
 30
0.0
 11
-24.0
 21
-290.0
 31
0.0
  0
LINE
  5
1E7
330
1A6
100
AcDbEntity
  8
0
  6
Continuous
 62
     7
370
    25
100
AcDbLine
 10
-65.0
 20
249.0
 30
0.0
 11
-25.0
 21
249.0
 31
0.0
  0
LINE
  5
1E8
330
1A6
100
AcDbEntity
  8
0
  6
Continuous
 62
     7
370
    25
100
AcDbLine
 10
-64.0
 20
260.0
 30
0.0
 11
-64.0
 21
248.0
 31
0.0
  0
LINE
  5
1E9
330
1A6
100
AcDbEntity
  8
0
  6
Continuous
 62
     7
370
    25
100
AcDbLine
 10
-25.0
 20
259.0
 30
0.0
 11
-65.0
 21
259.0
 31
0.0
  0
LINE
  5
1EA
330
1A6
100
AcDbEntity
  8
0
  6
Continuous
 62
     7
370
    25
100
AcDbLine
 10
-26.0
 20
248.0
 30
0.0
 11
-26.0
 21
260.0
 31
0.0
  0
LINE
  5
1EB
330
1A6
100
AcDbEntity
  8
0
  6
Continuous
 62
     7
370
    25
100
AcDbLine
 10
-64.0
 20
260.0
 30
0.0
 11
-26.0
 21
260.0
 31
0.0
  0
LINE
  5
1EC
330
1A6
100
AcDbEntity
  8
0
  6
Continuous
 62
     7
370
    25
100
AcDbLine
 10
-26.0
 20
248.0
 30
0.0
 11
-64.0
 21
248.0
 31
0.0
  0
LINE
  5
1ED
330
1A6
100
AcDbEntity
  8
0
  6
Continuous
 62
     7
370
    25
100
AcDbLine
 10
-65.0
 20
249.0
 30
0.0
 11
-65.0
 21
259.0
 31
0.0
  0
ARC
  5
1EE
330
1A6
100
AcDbEntity
  8
0
  6
Continuous
 62
     7
370
    25
100
AcDbCircle
 10
-1.0
 20
259.0
 30
0.0
 40
0.9999999999999545
100
AcDbArc
 50
360.0
 51
90.0
  0
ARC
  5
1EF
330
1A6
100
AcDbEntity
  8
0
  6
Continuous
 62
     7
370
    25
100
AcDbCircle
 10
-24.125
 20
-249.4090097423
 30
0.0
 40
0.8926785535677418
100
AcDbArc
 50
191.4217536589
 51
278.0494669755
  0
ARC
  5
1F0
330
1A6
100
AcDbEntity
  8
0
  6
Continuous
 62
     7
370
    25
100
AcDbCircle
 10
-0.875
 20
-249.4090097423
 30
0.0
 40
0.8926785535678472
100
AcDbArc
 50
261.9505330245
 51
348.578246341
  0
ARC
  5
1F1
330
1A6
100
AcDbEntity
  8
0
  6
Continuous
 62
     7
370
    25
100
AcDbCircle
 10
-24.125
 20
-288.8232233047
 30
0.0
 40
0.8926785535677464
100
AcDbArc
 50
191.421753659
 51
278.0494669755
  0
ARC
  5
1F2
330
1A6
100
AcDbEntity
  8
0
  6
Continuous
 62
     7
370
    25
100
AcDbCircle
 10
-0.875
 20
-288.8232233047
 30
0.0
 40
0.8926785535680186
100
AcDbArc
 50
261.9505330245
 51
348.578246341
  0
ARC
  5
1F3
330
1A6
100
AcDbEntity
  8
0
  6
Continuous
 62
     7
370
    25
100
AcDbCircle
 10
-1.0
 20
-289.0
 30
0.0
 40
1.000000000000057
100
AcDbArc
 50
270.0
 51
360.0
  0
ARC
  5
1F4
330
1A6
100
AcDbEntity
  8
0
  6
Continuous
 62
     7
370
    25
100
AcDbCircle
 10
-24.0
 20
-289.0
 30
0.0
 40
1.000000000000057
100
AcDbArc
 50
180.0
 51
270.0
  0
ARC
  5
1F5
330
1A6
100
AcDbEntity
  8
0
  6
Continuous
 62
     7
370
    25
100
AcDbCircle
 10
-64.0
 20
249.0
 30
0.0
 40
0.9999999999999858
100
AcDbArc
 50
180.0
 51
270.0
  0
ARC
  5
1F6
330
1A6
100
AcDbEntity
  8
0
  6
Continuous
 62
     7
370
    25
100
AcDbCircle
 10
-64.0
 20
259.0
 30
0.0
 40
0.9999999999999432
100
AcDbArc
 50
90.0
 51
180.0
  0
ARC
  5
1F7
330
1A6
100
AcDbEntity
  8
0
  6
Continuous
 62
     7
370
    25
100
AcDbCircle
 10
-26.0
 20
249.0
 30
0.0
 40
1.000000000000028
100
AcDbArc
 50
270.0
 51
360.0
  0
ARC
  5
1F8
330
1A6
100
AcDbEntity
  8
0
  6
Continuous
 62
     7
370
    25
100
AcDbCircle
 10
-26.0
 20
259.0
 30
0.0
 40
0.9999999999999538
100
AcDbArc
 50
360.0
 51
90.0
  0
VIEWPORT
  5
3B1
330
1A6
100
AcDbEntity
  8
0
100
AcDbViewport
 10
0.0
 20
0.0
 30
0.0
 40
205.6
 41
156.0
 68
     1
 69
     1
 12
0.0
 22
-32.5
 13
0.0
 23
0.0
 14
10.0
 24
10.0
 15
10.0
 25
10.0
 16
0.0
 26
0.0
 36
1.0
 17
0.0
 27
0.0
 37
0.0
 42
50.0
 43
0.0
 44
0.0
 45
1006.1089494163
 50
0.0
 51
0.0
 72
   100
 90
   557152
  1

281
     0
 71
     1
 74
     0
110
0.0
120
0.0
130
0.0
111
1.0
121
0.0
131
0.0
112
0.0
122
1.0
132
0.0
 79
     0
146
0.0
  0
ENDBLK
  5
1A9
330
1A6
100
AcDbEntity
  8
0
100
AcDbBlockEnd
  0
BLOCK
  5
1FB
330
1F9
100
AcDbEntity
  8
0
100
AcDbBlockBegin
  2
*Paper_Space2
 70
     0
 10
0.0
 20
0.0
 30
0.0
  3
*Paper_Space2
  1

  0
LINE
  5
23C
330
1F9
100
AcDbEntity
  8
0
  6
Continuous
 62
     7
370
    25
100
AcDbLine
 10
609.5857864376
 20
0.0
 30
0.0
 11
609.5857864376
 21
25.0
 31
0.0
  0
LINE
  5
23D
330
1F9
100
AcDbEntity
  8
0
  6
Continuous
 62
     7
370
    25
100
AcDbLine
 10
610.2928932188
 20
24.0
 30
0.0
 11
610.2928932188
 21
1.0
 31
0.0
  0
LINE
  5
23E
330
1F9
100
AcDbEntity
  8
0
  6
Continuous
 62
     7
370
    25
100
AcDbLine
 10
-650.0
 20
1.0
 30
0.0
 11
650.0
 21
1.0
 31
0.0
  0
LINE
  5
23F
330
1F9
100
AcDbEntity
  8
0
  6
Continuous
 62
     7
370
    25
100
AcDbLine
 10
649.0
 20
0.0
 30
0.0
 11
-649.0
 21
0.0
 31
0.0
  0
LINE
  5
240
330
1F9
100
AcDbEntity
  8
0
  6
Continuous
 62
     7
370
    25
100
AcDbLine
 10
-609.5857864376
 20
25.0
 30
0.0
 11
-609.5857864376
 21
0.0
 31
0.0
  0
LINE
  5
241
330
1F9
100
AcDbEntity
  8
0
  6
Continuous
 62
     7
370
    25
100
AcDbLine
 10
-610.2928932188
 20
1.0
 30
0.0
 11
-610.2928932188
 21
24.0
 31
0.0
  0
LINE
  5
242
330
1F9
100
AcDbEntity
  8
0
  6
Continuous
 62
     7
370
    25
100
AcDbLine
 10
650.0
 20
24.0
 30
0.0
 11
-650.0
 21
24.0
 31
0.0
  0
LINE
  5
243
330
1F9
100
AcDbEntity
  8
0
  6
Continuous
 62
     7
370
    25
100
AcDbLine
 10
-649.0
 20
25.0
 30
0.0
 11
649.0
 21
25.0
 31
0.0
  0
LINE
  5
244
330
1F9
100
AcDbEntity
  8
0
  6
Continuous
 62
     7
370
    25
100
AcDbLine
 10
-649.7071067812
 20
24.0
 30
0.0
 11
-649.7071067812
 21
1.0
 31
0.0
  0
LINE
  5
245
330
1F9
100
AcDbEntity
  8
0
  6
Continuous
 62
     7
370
    25
100
AcDbLine
 10
649.7071067812
 20
1.0
 30
0.0
 11
649.7071067812
 21
24.0
 31
0.0
  0
LINE
  5
246
330
1F9
100
AcDbEntity
  8
0
  6
Continuous
 62
     7
370
    25
100
AcDbLine
 10
650.0
 20
24.0
 30
0.0
 11
650.0
 21
1.0
 31
0.0
  0
LINE
  5
247
330
1F9
100
AcDbEntity
  8
0
  6
Continuous
 62
     7
370
    25
100
AcDbLine
 10
-650.0
 20
1.0
 30
0.0
 11
-650.0
 21
24.0
 31
0.0
  0
LINE
  5
248
330
1F9
100
AcDbEntity
  8
0
  6
Continuous
 62
     7
370
    25
100
AcDbLine
 10
650.0
 20
64.0
 30
0.0
 11
650.0
 21
26.0
 31
0.0
  0
LINE
  5
249
330
1F9
100
AcDbEntity
  8
0
  6
Continuous
 62
     7
370
    25
100
AcDbLine
 10
-650.0
 20
26.0
 30
0.0
 11
650.0
 21
26.0
 31
0.0
  0
LINE
  5
24A
330
1F9
100
AcDbEntity
  8
0
  6
Continuous
 62
     7
370
    25
100
AcDbLine
 10
649.0
 20
25.0
 30
0.0
 11
649.0
 21
65.0
 31
0.0
  0
LINE
  5
24B
330
1F9
100
AcDbEntity
  8
0
  6
Continuous
 62
     7
370
    25
100
AcDbLine
 10
650.0
 20
64.0
 30
0.0
 11
-650.0
 21
64.0
 31
0.0
  0
LINE
  5
24C
330
1F9
100
AcDbEntity
  8
0
  6
Continuous
 62
     7
370
    25
100
AcDbLine
 10
-649.0
 20
65.0
 30
0.0
 11
-649.0
 21
25.0
 31
0.0
  0
LINE
  5
24D
330
1F9
100
AcDbEntity
  8
0
  6
Continuous
 62
     7
370
    25
100
AcDbLine
 10
-649.0
 20
65.0
 30
0.0
 11
649.0
 21
65.0
 31
0.0
  0
LINE
  5
24E
330
1F9
100
AcDbEntity
  8
0
  6
Continuous
 62
     7
370
    25
100
AcDbLine
 10
-650.0
 20
26.0
 30
0.0
 11
-650.0
 21
64.0
 31
0.0
  0
ARC
  5
24F
330
1F9
100
AcDbEntity
  8
0
  6
Continuous
 62
     7
370
    25
100
AcDbCircle
 10
609.4090097423
 20
24.125
 30
0.0
 40
0.8926785535680101
100
AcDbArc
 50
351.9505330245
 51
78.578246341
  0
ARC
  5
250
330
1F9
100
AcDbEntity
  8
0
  6
Continuous
 62
     7
370
    25
100
AcDbCircle
 10
-609.4090097423
 20
0.875
 30
0.0
 40
0.8926785535682195
100
AcDbArc
 50
171.9505330245
 51
258.578246341
  0
ARC
  5
251
330
1F9
100
AcDbEntity
  8
0
  6
Continuous
 62
     7
370
    25
100
AcDbCircle
 10
-609.4090097423
 20
24.125
 30
0.0
 40
0.8926785535679125
100
AcDbArc
 50
101.421753659
 51
188.0494669755
  0
ARC
  5
252
330
1F9
100
AcDbEntity
  8
0
  6
Continuous
 62
     7
370
    25
100
AcDbCircle
 10
609.4090097423
 20
0.875
 30
0.0
 40
0.8926785535682128
100
AcDbArc
 50
281.421753659
 51
8.0494669755
  0
ARC
  5
253
330
1F9
100
AcDbEntity
  8
0
  6
Continuous
 62
     7
370
    25
100
AcDbCircle
 10
-648.8232233047
 20
0.875
 30
0.0
 40
0.8926785535679083
100
AcDbArc
 50
171.9505330245
 51
258.578246341
  0
ARC
  5
254
330
1F9
100
AcDbEntity
  8
0
  6
Continuous
 62
     7
370
    25
100
AcDbCircle
 10
-648.8232233047
 20
24.125
 30
0.0
 40
0.8926785535676937
100
AcDbArc
 50
101.421753659
 51
188.0494669755
  0
ARC
  5
255
330
1F9
100
AcDbEntity
  8
0
  6
Continuous
 62
     7
370
    25
100
AcDbCircle
 10
648.8232233047
 20
0.875
 30
0.0
 40
0.8926785535676125
100
AcDbArc
 50
281.4217536589
 51
8.0494669755
  0
ARC
  5
256
330
1F9
100
AcDbEntity
  8
0
  6
Continuous
 62
     7
370
    25
100
AcDbCircle
 10
648.8232233047
 20
24.125
 30
0.0
 40
0.8926785535675841
100
AcDbArc
 50
351.9505330245
 51
78.5782463411
  0
ARC
  5
257
330
1F9
100
AcDbEntity
  8
0
  6
Continuous
 62
     7
370
    25
100
AcDbCircle
 10
649.0
 20
24.0
 30
0.0
 40
1.0
100
AcDbArc
 50
0.0
 51
90.0
  0
ARC
  5
258
330
1F9
100
AcDbEntity
  8
0
  6
Continuous
 62
     7
370
    25
100
AcDbCircle
 10
649.0
 20
1.0
 30
0.0
 40
1.0
100
AcDbArc
 50
270.0
 51
0.0
  0
ARC
  5
259
330
1F9
100
AcDbEntity
  8
0
  6
Continuous
 62
     7
370
    25
100
AcDbCircle
 10
-649.0
 20
1.0
 30
0.0
 40
1.0
100
AcDbArc
 50
180.0
 51
270.0
  0
ARC
  5
25A
330
1F9
100
AcDbEntity
  8
0
  6
Continuous
 62
     7
370
    25
100
AcDbCircle
 10
-649.0
 20
24.0
 30
0.0
 40
1.0
100
AcDbArc
 50
90.0
 51
180.0
  0
ARC
  5
25B
330
1F9
100
AcDbEntity
  8
0
  6
Continuous
 62
     7
370
    25
100
AcDbCircle
 10
-649.0
 20
64.0
 30
0.0
 40
1.0
100
AcDbArc
 50
90.0
 51
180.0
  0
ARC
  5
25C
330
1F9
100
AcDbEntity
  8
0
  6
Continuous
 62
     7
370
    25
100
AcDbCircle
 10
-649.0
 20
26.0
 30
0.0
 40
1.0
100
AcDbArc
 50
180.0
 51
270.0
  0
ARC
  5
25D
330
1F9
100
AcDbEntity
  8
0
  6
Continuous
 62
     7
370
    25
100
AcDbCircle
 10
649.0
 20
26.0
 30
0.0
 40
1.0
100
AcDbArc
 50
270.0
 51
0.0
  0
ARC
  5
25E
330
1F9
100
AcDbEntity
  8
0
  6
Continuous
 62
     7
370
    25
100
AcDbCircle
 10
649.0
 20
64.0
 30
0.0
 40
1.0
100
AcDbArc
 50
0.0
 51
90.0
  0
VIEWPORT
  5
3B3
330
1F9
100
AcDbEntity
  8
0
100
AcDbViewport
 10
0.0
 20
0.0
 30
0.0
 40
205.6
 41
156.0
 68
     1
 69
     1
 12
0.0
 22
-32.5
 13
0.0
 23
0.0
 14
10.0
 24
10.0
 15
10.0
 25
10.0
 16
0.0
 26
0.0
 36
1.0
 17
0.0
 27
0.0
 37
0.0
 42
50.0
 43
0.0
 44
0.0
 45
1006.1089494163
 50
0.0
 51
0.0
 72
   100
 90
   557152
  1

281
     0
 71
     1
 74
     0
110
0.0
120
0.0
130
0.0
111
1.0
121
0.0
131
0.0
112
0.0
122
1.0
132
0.0
 79
     0
146
0.0
  0
ENDBLK
  5
1FC
330
1F9
100
AcDbEntity
  8
0
100
AcDbBlockEnd
  0
BLOCK
  5
261
330
25F
100
AcDbEntity
  8
0
100
AcDbBlockBegin
  2
*Paper_Space3
 70
     0
 10
0.0
 20
0.0
 30
0.0
  3
*Paper_Space3
  1

  0
SPLINE
  5
26A
330
25F
100
AcDbEntity
  8
0
  6
Continuous
 62
     7
370
    25
100
AcDbSpline
210
0.0
220
0.0
230
1.0
 70
     8
 71
     3
 72
     9
 73
     5
 74
     0
 42
0.000000001
 43
0.00000001
 40
0.0
 40
0.0
 40
0.0
 40
0.0
 40
0.5553922894575393
 40
1.0
 40
1.0
 40
1.0
 40
1.0
 10
235.2121282793908
 20
-32.46130507711547
 30
0.0
 10
235.031851626629
 20
-32.93625416387297
 30
0.0
 10
234.7072582604916
 20
-33.79141383348485
 30
0.0
 10
234.2196482639697
 20
-34.62523784145982
 30
0.0
 10
234.0028530997786
 20
-34.99596242464091
 30
0.0
  0
SPLINE
  5
26B
330
25F
100
AcDbEntity
  8
0
  6
Continuous
 62
     7
370
    25
100
AcDbSpline
210
0.0
220
0.0
230
1.0
 70
     8
 71
     3
 72
    16
 73
    12
 74
     0
 42
0.000000001
 43
0.00000001
 40
0.0
 40
0.0
 40
0.0
 40
0.0
 40
0.0678037876569939
 40
0.1968518271931584
 40
0.3258982787274273
 40
0.4549540991470348
 40
0.5840649686156952
 40
0.713296722067381
 40
0.8427364675206287
 40
0.972487335130898
 40
1.0
 40
1.0
 40
1.0
 40
1.0
 10
219.4102495826982
 20
-15.96946623103797
 30
0.0
 10
219.9386322113812
 20
-16.28154543913244
 30
0.0
 10
221.4726628239414
 20
-17.18759161244016
 30
0.0
 10
223.8362612592888
 20
-18.77945879092347
 30
0.0
 10
226.4072049406786
 20
-20.77226297483519
 30
0.0
 10
228.7148353024018
 20
-22.86369292094272
 30
0.0
 10
230.7492909894302
 20
-25.04031026619711
 30
0.0
 10
232.50894222153
 20
-27.29041631292096
 30
0.0
 10
233.9530433127271
 20
-29.60588297442686
 30
0.0
 10
234.8704554592075
 20
-31.34218449661736
 30
0.0
 10
235.2098884026057
 20
-32.31169175967012
 30
0.0
 10
235.2692709223165
 20
-32.48130341722354
 30
0.0
  0
SPLINE
  5
26C
330
25F
100
AcDbEntity
  8
0
  6
Continuous
 62
     7
370
    25
100
AcDbSpline
210
0.0
220
0.0
230
1.0
 70
     8
 71
     3
 72
     9
 73
     5
 74
     0
 42
0.000000001
 43
0.00000001
 40
0.0
 40
0.0
 40
0.0
 40
0.0
 40
0.7552036472823904
 40
1.0
 40
1.0
 40
1.0
 40
1.0
 10
-283.6670377175826
 20
18.35323077690069
 30
0.0
 10
-284.0025787375192
 20
18.96803746186673
 30
0.0
 10
-284.4468840863403
 20
19.78213136511841
 30
0.0
 10
-284.7332540366715
 20
20.61409551360265
 30
0.0
 10
-284.8033563560405
 20
20.81775730274341
 30
0.0
  0
SPLINE
  5
26E
330
25F
100
AcDbEntity
  8
0
  6
Continuous
 62
     7
370
    25
100
AcDbSpline
210
0.0
220
0.0
230
1.0
 70
     8
 71
     3
 72
    16
 73
    12
 74
     0
 42
0.000000001
 43
0.00000001
 40
0.0
 40
0.0
 40
0.0
 40
0.0
 40
0.0756952865340887
 40
0.2073291885554184
 40
0.3385139269496499
 40
0.4693321074672017
 40
0.599884838786293
 40
0.7302659430830587
 40
0.8605506869070391
 40
0.9838835594740015
 40
1.0
 40
1.0
 40
1.0
 40
1.0
 10
-284.6933862174436
 20
20.73506493072327
 30
0.0
 10
-284.5110241671655
 20
21.19597903127682
 30
0.0
 10
-284.0115349963248
 20
22.45842152719741
 30
0.0
 10
-282.8553416102141
 20
24.47819164459052
 30
0.0
 10
-281.264193965243
 20
26.78008457212997
 30
0.0
 10
-279.3721901252625
 20
29.00880665652865
 30
0.0
 10
-277.2068970794403
 20
31.15529381691269
 30
0.0
 10
-274.7746063537151
 20
33.20851608749426
 30
0.0
 10
-272.1349576417229
 20
35.12282926264439
 30
0.0
 10
-270.1205994996465
 20
36.3928446913523
 30
0.0
 10
-269.0333768024988
 20
37.02410500055316
 30
0.0
 10
-268.9077242657565
 20
37.09706103743857
 30
0.0
  0
SPLINE
  5
26F
330
25F
100
AcDbEntity
  8
0
  6
Continuous
 62
     7
370
    25
100
AcDbSpline
210
0.0
220
0.0
230
1.0
 70
     8
 71
     3
 72
    14
 73
    10
 74
     0
 42
0.000000001
 43
0.00000001
 40
0.0
 40
0.0
 40
0.0
 40
0.0
 40
0.0588847638395071
 40
0.2310335692335544
 40
0.402781167162344
 40
0.570360105718074
 40
0.7344354038463986
 40
0.8967071058963442
 40
1.0
 40
1.0
 40
1.0
 40
1.0
 10
229.5882871585307
 20
60.73424704204668
 30
0.0
 10
229.606342498731
 20
60.58929004216648
 30
0.0
 10
229.677182380191
 20
60.0205532266639
 30
0.0
 10
229.4848869189941
 20
59.02878685831813
 30
0.0
 10
229.0018106339418
 20
57.77014602969415
 30
0.0
 10
228.1912274068155
 20
56.54949212860724
 30
0.0
 10
227.098082159227
 20
55.40019967223171
 30
0.0
 10
225.9140835449809
 20
54.46041593250257
 30
0.0
 10
225.049741360831
 20
53.9357361551623
 30
0.0
 10
224.7135504415976
 20
53.73165890441386
 30
0.0
  0
SPLINE
  5
270
330
25F
100
AcDbEntity
  8
0
  6
Continuous
 62
     7
370
    25
100
AcDbSpline
210
0.0
220
0.0
230
1.0
 70
     8
 71
     3
 72
    26
 73
    22
 74
     0
 42
0.000000001
 43
0.00000001
 40
0.0
 40
0.0
 40
0.0
 40
0.0
 40
0.029330730459909
 40
0.0854616045025799
 40
0.1417002025343921
 40
0.1980302657275028
 40
0.2544432487747659
 40
0.3109158868117747
 40
0.3674191464021686
 40
0.4239214639943398
 40
0.4803807042673271
 40
0.536764691411525
 40
0.5930426881344397
 40
0.649189863060647
 40
0.7051980109609088
 40
0.7610982244402938
 40
0.8169777187255287
 40
0.8730215580054299
 40
0.9296319175644606
 40
0.9873942863394815
 40
1.0
 40
1.0
 40
1.0
 40
1.0
 10
224.7135504415976
 20
53.73165890441386
 30
0.0
 10
224.4251126522629
 20
53.57189766605475
 30
0.0
 10
223.5846850226335
 20
53.10639777725545
 30
0.0
 10
222.0263048648803
 20
52.42768823864766
 30
0.0
 10
220.0043359887093
 20
51.75718509315539
 30
0.0
 10
217.8338663060436
 20
51.24425641125886
 30
0.0
 10
215.5586166352386
 20
50.89812373143964
 30
0.0
 10
213.2191579245317
 20
50.72675176164726
 30
0.0
 10
210.8589679256879
 20
50.73379337985447
 30
0.0
 10
208.5218475229428
 20
50.9192727436312
 30
0.0
 10
206.2513607569261
 20
51.27929554511469
 30
0.0
 10
204.0898003283305
 20
51.80610856900606
 30
0.0
 10
202.0772274873044
 20
52.48817124626566
 30
0.0
 10
200.2505599969525
 20
53.31023347927253
 30
0.0
 10
198.6427084883014
 20
54.25356672881298
 30
0.0
 10
197.280519083405
 20
55.2963942095157
 30
0.0
 10
196.1870835774215
 20
56.41483175150984
 30
0.0
 10
195.3668257222094
 20
57.58550207305395
 30
0.0
 10
194.8561488834637
 20
58.79018836219703
 30
0.0
 10
194.623086265413
 20
59.6898074872808
 30
0.0
 10
194.6541173788723
 20
60.18807691121452
 30
0.0
 10
194.6596762816774
 20
60.27733672143676
 30
0.0
  0
SPLINE
  5
271
330
25F
100
AcDbEntity
  8
0
  6
Continuous
 62
     7
370
    25
100
AcDbSpline
210
0.0
220
0.0
230
1.0
 70
     8
 71
     3
 72
    11
 73
     7
 74
     0
 42
0.000000001
 43
0.00000001
 40
0.0
 40
0.0
 40
0.0
 40
0.0
 40
0.2035668796619828
 40
0.4886133295769177
 40
0.7737489833976848
 40
1.0
 40
1.0
 40
1.0
 40
1.0
 10
208.0458832061539
 20
51.02555144878222
 30
0.0
 10
208.5919122780174
 20
51.09809474834424
 30
0.0
 10
209.9025237256757
 20
51.27221748970739
 30
0.0
 10
212.0375129880382
 20
51.33925940175341
 30
0.0
 10
214.2354239914044
 20
51.28180491712265
 30
0.0
 10
215.6102242943674
 20
51.10665469782098
 30
0.0
 10
216.2184723856078
 20
51.02916359868391
 30
0.0
  0
SPLINE
  5
273
330
25F
100
AcDbEntity
  8
0
  6
Continuous
 62
     7
370
    25
100
AcDbSpline
210
0.0
220
0.0
230
1.0
 70
     8
 71
     3
 72
    14
 73
    10
 74
     0
 42
0.000000001
 43
0.00000001
 40
0.0
 40
0.0
 40
0.0
 40
0.0
 40
0.058884763839563
 40
0.2310335692336049
 40
0.4027811671623905
 40
0.5703601057181296
 40
0.7344354038464512
 40
0.8967071058964051
 40
1.0
 40
1.0
 40
1.0
 40
1.0
 10
158.8776090398761
 20
101.554652633182
 30
0.0
 10
158.8956643800763
 20
101.4096956333017
 30
0.0
 10
158.9665042615363
 20
100.840958817799
 30
0.0
 10
158.7742088003393
 20
99.84919244945311
 30
0.0
 10
158.291132515287
 20
98.59055162082922
 30
0.0
 10
157.4805492881605
 20
97.3698977197423
 30
0.0
 10
156.3874040405718
 20
96.22060526336679
 30
0.0
 10
155.2034054263258
 20
95.28082152363784
 30
0.0
 10
154.3390632421761
 20
94.75614174629767
 30
0.0
 10
154.0028723229429
 20
94.5520644955494
 30
0.0
  0
SPLINE
  5
274
330
25F
100
AcDbEntity
  8
0
  6
Continuous
 62
     7
370
    25
100
AcDbSpline
210
0.0
220
0.0
230
1.0
 70
     8
 71
     3
 72
    26
 73
    22
 74
     0
 42
0.000000001
 43
0.00000001
 40
0.0
 40
0.0
 40
0.0
 40
0.0
 40
0.0293307304599091
 40
0.0854616045025796
 40
0.1417002025343911
 40
0.1980302657275052
 40
0.254443248774766
 40
0.3109158868117775
 40
0.3674191464021731
 40
0.4239214639943461
 40
0.4803807042673305
 40
0.5367646914115309
 40
0.593042688134448
 40
0.6491898630606576
 40
0.7051980109609222
 40
0.7610982244403098
 40
0.8169777187255474
 40
0.8730215580054513
 40
0.9296319175644829
 40
0.9873942863395105
 40
0.9999999999999999
 40
0.9999999999999999
 40
0.9999999999999999
 40
0.9999999999999999
 10
154.0028723229429
 20
94.5520644955494
 30
0.0
 10
153.7144345336082
 20
94.39230325719028
 30
0.0
 10
152.8740069039788
 20
93.92680336839102
 30
0.0
 10
151.3156267462256
 20
93.24809382978319
 30
0.0
 10
149.2936578700547
 20
92.57759068429088
 30
0.0
 10
147.1231881873889
 20
92.06466200239441
 30
0.0
 10
144.8479385165838
 20
91.7185293225751
 30
0.0
 10
142.5084798058771
 20
91.54715735278285
 30
0.0
 10
140.1482898070329
 20
91.55419897098996
 30
0.0
 10
137.8111694042881
 20
91.73967833476677
 30
0.0
 10
135.5406826382712
 20
92.09970113625025
 30
0.0
 10
133.3791222096758
 20
92.62651416014167
 30
0.0
 10
131.3665493686495
 20
93.30857683740129
 30
0.0
 10
129.5398818782975
 20
94.13063907040817
 30
0.0
 10
127.9320303696465
 20
95.07397231994871
 30
0.0
 10
126.56984096475
 20
96.11679980065149
 30
0.0
 10
125.4764054587665
 20
97.23523734264566
 30
0.0
 10
124.6561476035545
 20
98.40590766418988
 30
0.0
 10
124.145470764809
 20
99.61059395333302
 30
0.0
 10
123.9124081467582
 20
100.5102130784166
 30
0.0
 10
123.9434392602177
 20
101.0084825023502
 30
0.0
 10
123.9489981630227
 20
101.0977423125722
 30
0.0
  0
SPLINE
  5
275
330
25F
100
AcDbEntity
  8
0
  6
Continuous
 62
     7
370
    25
100
AcDbSpline
210
0.0
220
0.0
230
1.0
 70
     8
 71
     3
 72
    11
 73
     7
 74
     0
 42
0.000000001
 43
0.00000001
 40
0.0
 40
0.0
 40
0.0
 40
0.0
 40
0.2035668796619391
 40
0.4886133295768755
 40
0.7737489833976543
 40
1.0
 40
1.0
 40
1.0
 40
1.0
 10
137.3352050874993
 20
91.84595703991772
 30
0.0
 10
137.8812341593627
 20
91.9185003394797
 30
0.0
 10
139.1918456070208
 20
92.09262308084284
 30
0.0
 10
141.3268348693833
 20
92.15966499288896
 30
0.0
 10
143.5247458727495
 20
92.10221050825815
 30
0.0
 10
144.8995461757127
 20
91.9270602889565
 30
0.0
 10
145.5077942669531
 20
91.84956918981946
 30
0.0
  0
SPLINE
  5
276
330
25F
100
AcDbEntity
  8
0
  6
Continuous
 62
     7
370
    25
100
AcDbSpline
210
0.0
220
0.0
230
1.0
 70
     8
 71
     3
 72
    14
 73
    10
 74
     0
 42
0.000000001
 43
0.00000001
 40
0.0
 40
0.0
 40
0.0
 40
0.0
 40
0.0588847638395167
 40
0.2310335692335614
 40
0.4027811671623528
 40
0.5703601057180848
 40
0.7344354038464094
 40
0.8967071058963552
 40
1.0
 40
1.0
 40
1.0
 40
1.0
 10
88.16693092122144
 20
142.3750582243177
 30
0.0
 10
88.18498626142171
 20
142.2301012244375
 30
0.0
 10
88.2558261428817
 20
141.6613644089348
 30
0.0
 10
88.06353068168482
 20
140.6695980405891
 30
0.0
 10
87.5804543966325
 20
139.4109572119651
 30
0.0
 10
86.76987116950608
 20
138.1903033108781
 30
0.0
 10
85.67672592191755
 20
137.0410108545026
 30
0.0
 10
84.49272730767143
 20
136.1012271147735
 30
0.0
 10
83.62838512352162
 20
135.5765473374333
 30
0.0
 10
83.29219420428826
 20
135.3724700866849
 30
0.0
  0
SPLINE
  5
277
330
25F
100
AcDbEntity
  8
0
  6
Continuous
 62
     7
370
    25
100
AcDbSpline
210
0.0
220
0.0
230
1.0
 70
     8
 71
     3
 72
    26
 73
    22
 74
     0
 42
0.000000001
 43
0.00000001
 40
0.0
 40
0.0
 40
0.0
 40
0.0
 40
0.0293307304599091
 40
0.0854616045025801
 40
0.1417002025343925
 40
0.1980302657275028
 40
0.2544432487747666
 40
0.3109158868117755
 40
0.3674191464021695
 40
0.4239214639943409
 40
0.4803807042673287
 40
0.5367646914115227
 40
0.5930426881344433
 40
0.6491898630606516
 40
0.7051980109609156
 40
0.7610982244403022
 40
0.816977718725544
 40
0.8730215580054416
 40
0.9296319175644778
 40
0.9873942863395029
 40
1.0
 40
1.0
 40
1.0
 40
1.0
 10
83.29219420428826
 20
135.3724700866849
 30
0.0
 10
83.00375641495359
 20
135.2127088483258
 30
0.0
 10
82.1633287853242
 20
134.7472089595265
 30
0.0
 10
80.60494862757098
 20
134.0684994209186
 30
0.0
 10
78.58297975140002
 20
133.3979962754264
 30
0.0
 10
76.41251006873422
 20
132.8850675935299
 30
0.0
 10
74.13726039792928
 20
132.5389349137106
 30
0.0
 10
71.79780168722246
 20
132.3675629439183
 30
0.0
 10
69.43761168837852
 20
132.3746045621255
 30
0.0
 10
67.10049128563355
 20
132.5600839259022
 30
0.0
 10
64.83000451961679
 20
132.9201067273857
 30
0.0
 10
62.66844409102128
 20
133.4469197512771
 30
0.0
 10
60.65587124999501
 20
134.1289824285367
 30
0.0
 10
58.82920375964311
 20
134.9510446615436
 30
0.0
 10
57.22135225099208
 20
135.8943779110842
 30
0.0
 10
55.85916284609541
 20
136.9372053917868
 30
0.0
 10
54.76572734011204
 20
138.055642933781
 30
0.0
 10
53.9454694848999
 20
139.2263132553253
 30
0.0
 10
53.43479264615438
 20
140.4309995444684
 30
0.0
 10
53.20173002810365
 20
141.3306186695521
 30
0.0
 10
53.232761141563
 20
141.8288880934856
 30
0.0
 10
53.23832004436802
 20
141.9181479037077
 30
0.0
  0
SPLINE
  5
278
330
25F
100
AcDbEntity
  8
0
  6
Continuous
 62
     7
370
    25
100
AcDbSpline
210
0.0
220
0.0
230
1.0
 70
     8
 71
     3
 72
    30
 73
    26
 74
     0
 42
0.000000001
 43
0.00000001
 40
0.0
 40
0.0
 40
0.0
 40
0.0
 40
0.0240656904219425
 40
0.0698916283199194
 40
0.1157347413946744
 40
0.1615893388423991
 40
0.2074568663754214
 40
0.2533372982036833
 40
0.2992296696170134
 40
0.3451324385226838
 40
0.3910437204690121
 40
0.4369614357960874
 40
0.4828833975958468
 40
0.5288073611125348
 40
0.574730952392347
 40
0.6206512106098454
 40
0.666565832004071
 40
0.712472521542328
 40
0.7583690246383753
 40
0.8042531875265921
 40
0.8501230627897775
 40
0.8959770835789934
 40
0.9418143390710569
 40
0.9876349943653402
 40
1.0
 40
1.0
 40
1.0
 40
1.0
 10
-113.3442324047158
 20
126.9019533379364
 30
0.0
 10
-112.8032638435884
 20
127.2071945657416
 30
0.0
 10
-111.2321818200035
 20
128.0936767762093
 30
0.0
 10
-108.4638799108121
 20
129.4636555305466
 30
0.0
 10
-104.9871447326667
 20
130.9587280350165
 30
0.0
 10
-101.3257048659428
 20
132.3052570380247
 30
0.0
 10
-97.50291333491356
 20
133.4977365525461
 30
0.0
 10
-93.5378182153991
 20
134.5289594357774
 30
0.0
 10
-89.45163431699407
 20
135.3933183925988
 30
0.0
 10
-85.26590512789699
 20
136.0859463180413
 30
0.0
 10
-81.0028301258317
 20
136.6029856047449
 30
0.0
 10
-76.68501361597434
 20
136.9415442770134
 30
0.0
 10
-72.33537049927686
 20
137.0997276838867
 30
0.0
 10
-67.97699455046225
 20
137.0766430306278
 30
0.0
 10
-63.63305367520992
 20
136.8724066362568
 30
0.0
 10
-59.32664252651112
 20
136.4881470311458
 30
0.0
 10
-55.08065559449928
 20
135.9259998292606
 30
0.0
 10
-50.91764029142261
 20
135.1890977768232
 30
0.0
 10
-46.85971576401489
 20
134.2815494061117
 30
0.0
 10
-42.92836903562637
 20
133.2084617536082
 30
0.0
 10
-39.14462842751737
 20
131.9757734794245
 30
0.0
 10
-35.5278248555213
 20
130.5907698843911
 30
0.0
 10
-32.09961295688898
 20
129.0600221877508
 30
0.0
 10
-29.65443074269244
 20
127.8014820596189
 30
0.0
 10
-28.35356925516577
 20
127.059608513343
 30
0.0
 10
-28.07712383259299
 20
126.9019533379364
 30
0.0
  0
SPLINE
  5
279
330
25F
100
AcDbEntity
  8
0
  6
Continuous
 62
     7
370
    25
100
AcDbSpline
210
0.0
220
0.0
230
1.0
 70
     8
 71
     3
 72
    11
 73
     7
 74
     0
 42
0.000000001
 43
0.00000001
 40
0.0
 40
0.0
 40
0.0
 40
0.0
 40
0.2035668796620188
 40
0.4886133295769712
 40
0.7737489833977366
 40
1.0
 40
1.0
 40
1.0
 40
1.0
 10
66.62452696884458
 20
132.6663626310533
 30
0.0
 10
67.17055604070823
 20
132.7389059306153
 30
0.0
 10
68.48116748836652
 20
132.9130286719785
 30
0.0
 10
70.61615675072927
 20
132.9800705840244
 30
0.0
 10
72.81406775409538
 20
132.9226160993937
 30
0.0
 10
74.18886805705817
 20
132.747465880092
 30
0.0
 10
74.79711614829833
 20
132.6699747809549
 30
0.0
  0
LWPOLYLINE
  5
292
330
25F
100
AcDbEntity
  8
0
  6
Continuous
 62
     7
370
    25
100
AcDbPolyline
 90
       46
 70
   128
 43
0.0
 10
154.5028316893
 20
94.5025564451
 10
152.5549341656
 20
93.5250458513
 10
150.3903342119
 20
92.7135481003
 10
148.0511633039
 20
92.0838580729
 10
145.5829507427
 20
91.6482319691
 10
143.0337374781
 20
91.4151487554
 10
140.4531410468
 20
91.3891451316
 10
137.8913898228
 20
91.5707272286
 10
135.3983453799
 20
91.9563607574
 10
133.0225319921
 20
92.5385398001
 10
130.8101921648
 20
93.3059329037
 10
128.8043865762
 20
94.2436036345
 10
127.0441559504
 20
95.3333012981
 10
125.5637611743
 20
96.5538161692
 10
124.3920164484
 20
97.8813923141
 10
123.551728451
 20
99.2901899732
 10
123.0592524319
 20
100.7527885025
 10
122.9241738769
 20
102.2407200854
 10
123.1491219363
 20
103.7250238261
 10
123.729718252
 20
105.1768094406
 10
124.6546621771
 20
106.5678195734
 10
125.9059507303
 20
107.8709797945
 10
127.4592290032
 20
109.0609255724
 10
129.284264201
 20
110.1144959662
 10
131.3455340895
 20
111.0111844266
 10
133.6029183951
 20
111.7335379327
 10
136.0124796999
 20
112.267496695
 10
138.5273186341
 20
112.6026678137
 10
141.0984867182
 20
112.7325275643
 10
143.6759390903
 20
112.6545483743
 10
146.2095085717
 20
112.37024802
 10
148.6498821144
 20
111.8851600845
 10
150.9495606231
 20
111.2087262525
 10
153.0637834717
 20
110.3541125393
 10
154.9513997173
 20
109.3379530286
 10
156.5756690567
 20
108.1800261094
 10
157.9049769348
 20
106.9028695121
 10
158.9134498859
 20
105.5313416372
 10
159.5814591311
 20
104.0921377146
 10
159.8960026303
 20
102.6132702115
 10
159.850958152
 20
101.1235236019
 10
159.4472024358
 20
99.6518941088
 10
158.6925941275
 20
98.2270253264
 10
157.6018208194
 20
96.8766507047
 10
156.1961131732
 20
95.6270537499
 10
154.5028316893
 20
94.5025564451
  0
LWPOLYLINE
  5
293
330
25F
100
AcDbEntity
  8
0
  6
Continuous
 62
     7
370
    25
100
AcDbPolyline
 90
       46
 70
   128
 43
0.0
 10
225.2135098079
 20
53.6821508539
 10
223.2656122843
 20
52.7046402601
 10
221.1010123305
 20
51.8931425092
 10
218.7618414226
 20
51.2634524818
 10
216.2936288613
 20
50.8278263779
 10
213.7444155968
 20
50.5947431643
 10
211.1638191655
 20
50.5687395405
 10
208.6020679415
 20
50.7503216375
 10
206.1090234985
 20
51.1359551663
 10
203.7332101108
 20
51.7181342089
 10
201.5208702835
 20
52.4855273126
 10
199.5150646948
 20
53.4231980433
 10
197.754834069
 20
54.512895707
 10
196.274439293
 20
55.7334105781
 10
195.1026945671
 20
57.060986723
 10
194.2624065696
 20
58.469784382
 10
193.7699305506
 20
59.9323829114
 10
193.6348519956
 20
61.4203144943
 10
193.859800055
 20
62.9046182349
 10
194.4403963706
 20
64.3564038495
 10
195.3653402958
 20
65.7474139823
 10
196.616628849
 20
67.0505742034
 10
198.1699071218
 20
68.2405199813
 10
199.9949423196
 20
69.2940903751
 10
202.0562122082
 20
70.1907788355
 10
204.3135965138
 20
70.9131323415
 10
206.7231578186
 20
71.4470911039
 10
209.2379967527
 20
71.7822622226
 10
211.8091648369
 20
71.9121219731
 10
214.386617209
 20
71.8341427832
 10
216.9201866904
 20
71.5498424289
 10
219.360560233
 20
71.0647544933
 10
221.6602387418
 20
70.3883206614
 10
223.7744615904
 20
69.5337069481
 10
225.6620778359
 20
68.5175474374
 10
227.2863471753
 20
67.3596205183
 10
228.6156550534
 20
66.082463921
 10
229.6241280046
 20
64.710936046
 10
230.2921372497
 20
63.2717321234
 10
230.6066807489
 20
61.7928646204
 10
230.5616362707
 20
60.3031180107
 10
230.1578805545
 20
58.8314885177
 10
229.4032722462
 20
57.4066197352
 10
228.312498938
 20
56.0562451136
 10
226.9067912918
 20
54.8066481587
 10
225.2135098079
 20
53.6821508539
  0
LWPOLYLINE
  5
294
330
25F
100
AcDbEntity
  8
0
  6
Continuous
 62
     7
370
    25
100
AcDbPolyline
 90
       46
 70
   128
 43
0.0
 10
83.7921535706
 20
135.3229620362
 10
81.844256047
 20
134.3454514424
 10
79.6796560932
 20
133.5339536915
 10
77.3404851852
 20
132.904263664
 10
74.872272624
 20
132.4686375602
 10
72.3230593595
 20
132.2355543466
 10
69.7424629282
 20
132.2095507228
 10
67.1807117042
 20
132.3911328198
 10
64.6876672612
 20
132.7767663486
 10
62.3118538735
 20
133.3589453912
 10
60.0995140462
 20
134.1263384948
 10
58.0937084575
 20
135.0640092256
 10
56.3334778317
 20
136.1537068893
 10
54.8530830557
 20
137.3742217604
 10
53.6813383298
 20
138.7017979052
 10
52.8410503323
 20
140.1105955643
 10
52.3485743133
 20
141.5731940936
 10
52.2134957583
 20
143.0611256765
 10
52.4384438176
 20
144.5454294172
 10
53.0190401333
 20
145.9972150318
 10
53.9439840585
 20
147.3882251646
 10
55.1952726117
 20
148.6913853856
 10
56.7485508845
 20
149.8813311636
 10
58.5735860823
 20
150.9349015574
 10
60.6348559709
 20
151.8315900178
 10
62.8922402765
 20
152.5539435238
 10
65.3018015813
 20
153.0879022861
 10
67.8166405154
 20
153.4230734049
 10
70.3878085996
 20
153.5529331554
 10
72.9652609717
 20
153.4749539654
 10
75.4988304531
 20
153.1906536112
 10
77.9392039957
 20
152.7055656756
 10
80.2388825045
 20
152.0291318436
 10
82.3531053531
 20
151.1745181304
 10
84.2407215986
 20
150.1583586197
 10
85.864990938
 20
149.0004317005
 10
87.1942988161
 20
147.7232751033
 10
88.2027717672
 20
146.3517472283
 10
88.8707810124
 20
144.9125433057
 10
89.1853245116
 20
143.4336758027
 10
89.1402800334
 20
141.943929193
 10
88.7365243172
 20
140.4722996999
 10
87.9819160089
 20
139.0474309175
 10
86.8911427007
 20
137.6970562959
 10
85.4854350545
 20
136.447459341
 10
83.7921535706
 20
135.3229620362
  0
LWPOLYLINE
  5
295
330
25F
100
AcDbEntity
  8
0
  6
Continuous
 62
     7
370
    25
100
AcDbPolyline
 90
       22
 70
   128
 43
0.0
 10
67.4680374315
 20
-136.9141248849
 10
63.882071461
 20
-138.8349286181
 10
60.0574838723
 20
-140.5956600802
 10
56.0156633108
 20
-142.1864725466
 10
51.7792132764
 20
-143.5984695486
 10
47.3718257163
 20
-144.8237546264
 10
42.8181485295
 20
-145.8554754886
 10
38.1436477259
 20
-146.6878623339
 10
33.3744650103
 20
-147.3162601172
 10
28.5372715868
 20
-147.7371545832
 10
23.6591190033
 20
-147.9481919194
 10
18.7672878679
 20
-147.9481919194
 10
13.8891352844
 20
-147.7371545832
 10
9.0519418609
 20
-147.3162601171
 10
4.2827591453
 20
-146.6878623339
 10
-0.3917416583
 20
-145.8554754886
 10
-4.9454188451
 20
-144.8237546264
 10
-9.3528064053
 20
-143.5984695486
 10
-13.5892564396
 20
-142.1864725466
 10
-17.6310770012
 20
-140.5956600802
 10
-21.4556645898
 20
-138.8349286181
 10
-25.0416305603
 20
-136.9141248849
  0
LWPOLYLINE
  5
297
330
25F
100
AcDbEntity
  8
0
  6
Continuous
 62
     7
370
    25
100
AcDbPolyline
 90
       22
 70
   128
 43
0.0
 10
223.0315292926
 20
6.2954619964
 10
226.3588194687
 20
4.2253279057
 10
229.4088262941
 20
2.017440487
 10
232.1644928934
 20
-0.3158528577
 10
234.6104084611
 20
-2.7615034054
 10
236.7328944453
 20
-5.3058340862
 10
238.5200810434
 20
-7.934615971
 10
239.9619735829
 20
-10.633147845
 10
241.0505084159
 20
-13.3863384235
 10
241.7795980141
 20
-16.1787907478
 10
242.1451650127
 20
-18.9948882919
 10
242.1451650127
 20
-21.818882296
 10
241.7795980141
 20
-24.6349798402
 10
241.0505084159
 20
-27.4274321645
 10
239.9619735829
 20
-30.180622743
 10
238.5200810434
 20
-32.879154617
 10
236.7328944453
 20
-35.5079365018
 10
234.6104084611
 20
-38.0522671826
 10
232.1644928934
 20
-40.4979177303
 10
229.4088262941
 20
-42.8312110749
 10
226.3588194687
 20
-45.0390984937
 10
223.0315292926
 20
-47.1092325844
  0
LWPOLYLINE
  5
299
330
25F
100
AcDbEntity
  8
0
  6
Continuous
 62
     7
370
    25
100
AcDbPolyline
 90
       22
 70
   128
 43
0.0
 10
-116.9655121146
 20
149.1668815654
 10
-113.379546144
 20
151.0876852986
 10
-109.5549585554
 20
152.8484167607
 10
-105.5131379939
 20
154.4392292271
 10
-101.2766879595
 20
155.8512262291
 10
-96.8693003994
 20
157.0765113069
 10
-92.3156232126
 20
158.1082321691
 10
-87.641122409
 20
158.9406190144
 10
-82.8719396933
 20
159.5690167976
 10
-78.0347462699
 20
159.9899112637
 10
-73.1565936864
 20
160.2009485999
 10
-68.2647625509
 20
160.2009485999
 10
-63.3866099674
 20
159.9899112637
 10
-58.549416544
 20
159.5690167976
 10
-53.7802338283
 20
158.9406190144
 10
-49.1057330247
 20
158.1082321691
 10
-44.5520558379
 20
157.0765113069
 10
-40.1446682778
 20
155.8512262291
 10
-35.9082182434
 20
154.4392292271
 10
-31.8663976819
 20
152.8484167607
 10
-28.0418100933
 20
151.0876852986
 10
-24.4558441227
 20
149.1668815654
  0
LWPOLYLINE
  5
29B
330
25F
100
AcDbEntity
  8
0
  6
Continuous
 62
     7
370
    25
100
AcDbPolyline
 90
       22
 70
   128
 43
0.0
 10
-272.5290039756
 20
5.9572946841
 10
-275.8562941518
 20
8.0274287748
 10
-278.9063009772
 20
10.2353161935
 10
-281.6619675764
 20
12.5686095382
 10
-284.1078831442
 20
15.0142600859
 10
-286.2303691284
 20
17.5585907667
 10
-288.0175557265
 20
20.1873726515
 10
-289.459448266
 20
22.8859045255
 10
-290.547983099
 20
25.639095104
 10
-291.2770726972
 20
28.4315474283
 10
-291.6426396958
 20
31.2476449724
 10
-291.6426396958
 20
34.0716389765
 10
-291.2770726972
 20
36.8877365207
 10
-290.547983099
 20
39.680188845
 10
-289.459448266
 20
42.4333794235
 10
-288.0175557265
 20
45.1319112975
 10
-286.2303691284
 20
47.7606931822
 10
-284.1078831442
 20
50.3050238631
 10
-281.6619675764
 20
52.7506744108
 10
-278.9063009772
 20
55.0839677554
 10
-275.8562941518
 20
57.2918551741
 10
-272.5290039756
 20
59.3619892649
  0
LWPOLYLINE
  5
2AE
330
25F
100
AcDbEntity
  8
0
  6
Continuous
 62
     7
370
    25
100
AcDbPolyline
 90
       22
 70
   128
 43
0.0
 10
-24.5416305603
 20
-136.8646402955
 10
-20.994427738
 20
-138.7646807532
 10
-17.2111827211
 20
-140.5063792698
 10
-13.2130529505
 20
-142.0799955609
 10
-9.0223975896
 20
-143.4767293258
 10
-4.662652483
 20
-144.6887694627
 10
-0.1581990939
 20
-145.7093377516
 10
4.4657718471
 20
-146.5327267606
 10
9.183401219
 20
-147.1543317643
 10
13.9683061247
 20
-147.5706764954
 10
18.7937274349
 20
-147.7794325853
 10
23.6326794363
 20
-147.7794325853
 10
28.4581007465
 20
-147.5706764954
 10
33.2430056521
 20
-147.1543317643
 10
37.960635024
 20
-146.5327267606
 10
42.5846059651
 20
-145.7093377516
 10
47.0890593542
 20
-144.6887694627
 10
51.4488044608
 20
-143.4767293258
 10
55.6394598217
 20
-142.0799955609
 10
59.6375895923
 20
-140.5063792698
 10
63.4208346092
 20
-138.7646807532
 10
66.9680374315
 20
-136.8646402955
  0
LWPOLYLINE
  5
2B4
330
25F
100
AcDbEntity
  8
0
  6
Continuous
 62
     7
370
    25
100
AcDbPolyline
 90
        8
 70
   128
 43
0.0
 10
222.5315292926
 20
-47.059747995
 10
225.8228525233
 20
-45.0119913934
 10
228.8398897479
 20
-42.8279705334
 10
231.5657684703
 20
-40.5198993455
 10
233.985244471
 20
-38.1006855
 10
236.0847870588
 20
-35.5838582222
 10
237.8526547399
 20
-32.983492631
 10
238.8807199119
 20
-31.1345821845
  0
LWPOLYLINE
  5
2C7
330
25F
100
AcDbEntity
  8
0
  6
Continuous
 62
     7
370
    25
100
AcDbPolyline
 90
        8
 70
   128
 43
0.0
 10
-269.1151652802
 20
4.3246559996
 10
-272.1212456666
 20
6.2111834549
 10
-275.0521452337
 20
8.3574400926
 10
-277.6823123632
 20
10.6298311545
 10
-279.9955311999
 20
13.014346594
 10
-281.9775399804
 20
15.4962850805
 10
-283.6161189617
 20
18.0603446378
 10
-283.9017354562
 20
18.581701511
  0
LWPOLYLINE
  5
2D8
330
25F
100
AcDbEntity
  8
0
  6
Continuous
 62
     7
370
    25
100
AcDbPolyline
 90
       22
 70
   128
 43
0.0
 10
-24.9558441227
 20
148.6390784427
 10
-28.5030469451
 20
150.5391189003
 10
-32.2862919619
 20
152.2808174169
 10
-36.2844217326
 20
153.854433708
 10
-40.4750770935
 20
155.2511674729
 10
-44.8348222001
 20
156.4632076098
 10
-49.3392755891
 20
157.4837758987
 10
-53.9632465302
 20
158.3071649077
 10
-58.6808759021
 20
158.9287699114
 10
-63.4657808077
 20
159.3451146425
 10
-68.2912021179
 20
159.5538707324
 10
-73.1301541194
 20
159.5538707324
 10
-77.9555754296
 20
159.3451146425
 10
-82.7404803352
 20
158.9287699114
 10
-87.4581097071
 20
158.3071649077
 10
-92.0820806482
 20
157.4837758987
 10
-96.5865340373
 20
156.4632076098
 10
-100.9462791438
 20
155.2511674729
 10
-105.1369345047
 20
153.854433708
 10
-109.1350642754
 20
152.2808174169
 10
-112.9183092923
 20
150.5391189003
 10
-116.4655121146
 20
148.6390784427
  0
LWPOLYLINE
  5
2D9
330
25F
100
AcDbEntity
  8
0
  6
Continuous
 62
     7
370
    25
100
AcDbPolyline
 90
       21
 70
   128
 43
0.0
 10
-113.344191771
 20
143.2327930368
 10
-109.8677799478
 20
145.0879429113
 10
-106.1499515707
 20
146.7799152168
 10
-102.2136282881
 20
148.2982783814
 10
-98.0830788418
 20
149.6336711911
 10
-93.7837694429
 20
150.7778605054
 10
-89.3422067633
 20
151.7237920166
 10
-84.785774514
 20
152.4656337424
 10
-80.1425646151
 20
152.9988119818
 10
-75.4412039994
 20
153.3200395137
 10
-70.7106781187
 20
153.4273358635
 10
-65.9801522379
 20
153.3200395137
 10
-61.2787916222
 20
152.9988119818
 10
-56.6355817233
 20
152.4656337424
 10
-52.079149474
 20
151.7237920166
 10
-47.6375867945
 20
150.7778605054
 10
-43.3382773955
 20
149.6336711911
 10
-39.2077279493
 20
148.2982783814
 10
-35.2714046666
 20
146.7799152168
 10
-31.5535762895
 20
145.0879429113
 10
-28.0771644663
 20
143.2327930368
  0
LWPOLYLINE
  5
2DA
330
25F
100
AcDbEntity
  8
0
  6
Continuous
 62
     7
370
    25
100
AcDbPolyline
 90
       21
 70
   128
 43
0.0
 10
-28.2842712475
 20
142.5358512917
 10
-31.7437952188
 20
144.3819891453
 10
-35.4435629811
 20
146.0657421203
 10
-39.3607642357
 20
147.5767293198
 10
-43.4712481343
 20
148.9056350052
 10
-47.7496721767
 20
150.044266031
 10
-52.1696584562
 20
150.9856023584
 10
-56.7039562873
 20
151.7238403359
 10
-61.3246102162
 20
152.2544284808
 10
-66.003132375
 20
152.5740955408
 10
-70.7106781187
 20
152.6808706622
 10
-75.4182238623
 20
152.5740955408
 10
-80.0967460211
 20
152.2544284808
 10
-84.71739995
 20
151.7238403359
 10
-89.2516977812
 20
150.9856023584
 10
-93.6716840606
 20
150.044266031
 10
-97.950108103
 20
148.9056350052
 10
-102.0605920016
 20
147.5767293198
 10
-105.9777932562
 20
146.0657421203
 10
-109.6775610185
 20
144.3819891453
 10
-113.1370849898
 20
142.5358512917
  0
LWPOLYLINE
  5
2DB
330
25F
100
AcDbEntity
  8
0
  6
Continuous
 62
     7
370
    25
100
AcDbPolyline
 90
       21
 70
   128
 43
0.0
 10
-113.1370849898
 20
127.3597981444
 10
-109.6775610185
 20
129.205935998
 10
-105.9777932562
 20
130.889688973
 10
-102.0605920016
 20
132.4006761725
 10
-97.950108103
 20
133.7295818578
 10
-93.6716840606
 20
134.8682128837
 10
-89.2516977812
 20
135.8095492111
 10
-84.71739995
 20
136.5477871886
 10
-80.0967460211
 20
137.0783753335
 10
-75.4182238623
 20
137.3980423935
 10
-70.7106781187
 20
137.5048175149
 10
-66.003132375
 20
137.3980423935
 10
-61.3246102162
 20
137.0783753335
 10
-56.7039562873
 20
136.5477871886
 10
-52.1696584562
 20
135.8095492111
 10
-47.7496721767
 20
134.8682128837
 10
-43.4712481343
 20
133.7295818578
 10
-39.3607642357
 20
132.4006761725
 10
-35.4435629811
 20
130.889688973
 10
-31.7437952188
 20
129.205935998
 10
-28.2842712475
 20
127.3597981444
  0
LWPOLYLINE
  5
2FF
330
25F
100
AcDbEntity
  8
0
  6
Continuous
 62
     8
370
    25
100
AcDbPolyline
 90
       16
 70
   128
 43
0.0
 10
238.8807199119
 20
-31.1345821845
 10
239.278960881
 20
-30.3141310257
 10
240.3557289998
 20
-27.5907015591
 10
241.076937372
 20
-24.8284347536
 10
241.4385527079
 20
-22.0427783256
 10
241.4385527079
 20
-19.2493107958
 10
241.076937372
 20
-16.4636543678
 10
240.3557289998
 20
-13.7013875622
 10
239.278960881
 20
-10.9779580957
 10
237.8526547399
 20
-8.3085964904
 10
236.0847870588
 20
-5.7082308992
 10
233.985244471
 20
-3.1914036213
 10
231.5657684703
 20
-0.7721897759
 10
228.8398897479
 20
1.535881412
 10
225.8228525233
 20
3.7199022721
 10
222.5315292926
 20
5.7676588737
  0
LWPOLYLINE
  5
300
330
25F
100
AcDbEntity
  8
0
  6
Continuous
 62
     8
370
    25
100
AcDbPolyline
 90
       15
 70
   128
 43
0.0
 10
219.410208949
 20
0.3613734678
 10
222.6237709835
 20
-1.6455163599
 10
225.5546705507
 20
-3.7917729976
 10
228.1848376801
 20
-6.0641640595
 10
230.4980565168
 20
-8.448679499
 10
232.4800652974
 20
-10.9306179854
 10
234.1186442787
 20
-13.4946775428
 10
235.4036910764
 20
-16.1250498913
 10
236.3272829496
 20
-18.8055179106
 10
236.8837256474
 20
-21.5195556241
 10
237.0695885155
 20
-24.2504300867
 10
236.8837256474
 20
-26.9813045494
 10
236.3272829496
 20
-29.6953422629
 10
235.4036910764
 20
-32.3758102822
 10
234.2395673398
 20
-34.7889166354
  0
LWPOLYLINE
  5
301
330
25F
100
AcDbEntity
  8
0
  6
Continuous
 62
     8
370
    25
100
AcDbPolyline
 90
        9
 70
   128
 43
0.0
 10
235.2900418247
 20
-17.1651293464
 10
235.1188905205
 20
-16.7419032321
 10
233.8400862743
 20
-14.1243088112
 10
232.2094672473
 20
-11.5727050445
 10
230.2370867479
 20
-9.1028234177
 10
227.9351051579
 20
-6.7298915724
 10
225.3177149591
 20
-4.4685394223
 10
222.4010532326
 20
-2.3327089556
 10
219.2031021678
 20
-0.3355682773
  0
LWPOLYLINE
  5
302
330
25F
100
AcDbEntity
  8
0
  6
Continuous
 62
     8
370
    25
100
AcDbPolyline
 90
        9
 70
   128
 43
0.0
 10
219.2031021678
 20
-15.5116214246
 10
222.4010532326
 20
-17.5087621029
 10
225.3177149591
 20
-19.6445925696
 10
227.9351051579
 20
-21.9059447197
 10
230.2370867479
 20
-24.2788765651
 10
232.2094672473
 20
-26.7487581919
 10
233.8400862743
 20
-29.3003619586
 10
235.1188905205
 20
-31.9179563794
 10
235.2495092804
 20
-32.2387543776
  0
LWPOLYLINE
  5
304
330
25F
100
AcDbEntity
  8
0
  6
Continuous
 62
     8
370
    25
100
AcDbPolyline
 90
       16
 70
   128
 43
0.0
 10
-272.0290039756
 20
58.8341861422
 10
-275.3203272064
 20
56.7864295406
 10
-278.337364431
 20
54.6024086805
 10
-281.0632431534
 20
52.2943374926
 10
-283.4827191541
 20
49.8751236471
 10
-285.5822617419
 20
47.3582963693
 10
-287.3501294229
 20
44.7579307781
 10
-288.7764355641
 20
42.0885691728
 10
-289.8532036828
 20
39.3651397062
 10
-290.574412055
 20
36.6028729007
 10
-290.936027391
 20
33.8172164727
 10
-290.936027391
 20
31.0237489429
 10
-290.574412055
 20
28.2380925149
 10
-289.8532036828
 20
25.4758257094
 10
-288.7764355641
 20
22.7523962428
 10
-288.2722752681
 20
21.7251530396
  0
LWPOLYLINE
  5
305
330
25F
100
AcDbEntity
  8
0
  6
Continuous
 62
     8
370
    25
100
AcDbPolyline
 90
       15
 70
   128
 43
0.0
 10
-283.9017354562
 20
18.581701511
 10
-284.9011657594
 20
20.6907169863
 10
-285.8247576327
 20
23.3711850056
 10
-286.3812003305
 20
26.0852227191
 10
-286.5670631985
 20
28.8160971817
 10
-286.3812003305
 20
31.5469716444
 10
-285.8247576327
 20
34.2610093579
 10
-284.9011657594
 20
36.9414773772
 10
-283.6161189617
 20
39.5718497257
 10
-281.9775399804
 20
42.135909283
 10
-279.9955311999
 20
44.6178477695
 10
-277.6823123632
 20
47.002363209
 10
-275.0521452337
 20
49.2747542709
 10
-272.1212456666
 20
51.4210109086
 10
-268.9076836321
 20
53.4279007363
  0
LWPOLYLINE
  5
306
330
25F
100
AcDbEntity
  8
0
  6
Continuous
 62
     8
370
    25
100
AcDbPolyline
 90
        9
 70
   128
 43
0.0
 10
-268.7005768509
 20
52.7309589912
 10
-271.8985279157
 20
50.7338183129
 10
-274.8151896422
 20
48.5979878462
 10
-277.4325798409
 20
46.3366356961
 10
-279.734561431
 20
43.9637038507
 10
-281.7069419304
 20
41.4938222239
 10
-283.3375609574
 20
38.9422184572
 10
-284.6163652036
 20
36.3246240364
 10
-284.7005538997
 20
36.1194364102
  0
LWPOLYLINE
  5
307
330
25F
100
AcDbEntity
  8
0
  6
Continuous
 62
     8
370
    25
100
AcDbPolyline
 90
        9
 70
   128
 43
0.0
 10
-284.6836691813
 20
20.9849852387
 10
-284.6163652036
 20
21.1485708891
 10
-283.3375609574
 20
23.7661653099
 10
-281.7069419304
 20
26.3177690766
 10
-279.734561431
 20
28.7876507034
 10
-277.4325798409
 20
31.1605825488
 10
-274.8151896422
 20
33.4219346988
 10
-271.8985279157
 20
35.5577651656
 10
-268.7005768509
 20
37.5549058439
  0
LWPOLYLINE
  5
30A
330
25F
100
AcDbEntity
  8
0
  6
Continuous
 62
     8
370
    25
100
AcDbPolyline
 90
       24
 70
   128
 43
0.0
 10
229.6211198428
 20
60.774132457
 10
229.5874463616
 20
61.1380916688
 10
229.2321045105
 20
62.5648333457
 10
228.5286545435
 20
63.9478591686
 10
227.4914166734
 20
65.25901472
 10
226.1415060721
 20
66.471608654
 10
224.5064030267
 20
67.5609560548
 10
222.6193935199
 20
68.504880951
 10
220.5188916236
 20
69.2841677535
 10
218.2476574989
 20
69.8829524304
 10
215.8519269231
 20
70.2890454524
 10
213.380470062
 20
70.4941799367
 10
210.88359865
 20
70.4941799367
 10
208.4121417888
 20
70.2890454524
 10
206.016411213
 20
69.8829524304
 10
203.7451770884
 20
69.2841677535
 10
201.644675192
 20
68.504880951
 10
199.7576656852
 20
67.5609560548
 10
198.1225626398
 20
66.471608654
 10
196.7726520385
 20
65.25901472
 10
195.7354141685
 20
63.9478591686
 10
195.0319642015
 20
62.5648333457
 10
194.6766223503
 20
61.1380916688
 10
194.632034356
 20
60.4173850764
  0
LWPOLYLINE
  5
30D
330
25F
100
AcDbEntity
  8
0
  6
Continuous
 62
     8
370
    25
100
AcDbPolyline
 90
       24
 70
   128
 43
0.0
 10
158.9104417242
 20
101.5945380481
 10
158.876768243
 20
101.9584972599
 10
158.5214263918
 20
103.3852389368
 10
157.8179764248
 20
104.7682647597
 10
156.7807385547
 20
106.0794203111
 10
155.4308279535
 20
107.2920142451
 10
153.7957249081
 20
108.381361646
 10
151.9087154013
 20
109.3252865421
 10
149.8082135049
 20
110.1045733446
 10
147.5369793803
 20
110.7033580215
 10
145.1412488045
 20
111.1094510435
 10
142.6697919433
 20
111.3145855278
 10
140.1729205313
 20
111.3145855278
 10
137.7014636701
 20
111.1094510435
 10
135.3057330943
 20
110.7033580215
 10
133.0344989697
 20
110.1045733446
 10
130.9339970734
 20
109.3252865421
 10
129.0469875665
 20
108.381361646
 10
127.4118845211
 20
107.2920142451
 10
126.0619739199
 20
106.0794203111
 10
125.0247360498
 20
104.7682647597
 10
124.3212860828
 20
103.3852389368
 10
123.9659442316
 20
101.9584972599
 10
123.9213562373
 20
101.2377906675
  0
LWPOLYLINE
  5
30F
330
25F
100
AcDbEntity
  8
0
  6
Continuous
 62
     8
370
    25
100
AcDbPolyline
 90
       24
 70
   128
 43
0.0
 10
88.1997636055
 20
142.4149436392
 10
88.1660901243
 20
142.7789028511
 10
87.8107482732
 20
144.205644528
 10
87.1072983062
 20
145.5886703509
 10
86.0700604361
 20
146.8998259023
 10
84.7201498348
 20
148.1124198362
 10
83.0850467894
 20
149.2017672371
 10
81.1980372826
 20
150.1456921332
 10
79.0975353863
 20
150.9249789357
 10
76.8263012616
 20
151.5237636126
 10
74.4305706858
 20
151.9298566347
 10
71.9591138246
 20
152.1349911189
 10
69.4622424127
 20
152.1349911189
 10
66.9907855515
 20
151.9298566347
 10
64.5950549757
 20
151.5237636126
 10
62.3238208511
 20
150.9249789357
 10
60.2233189547
 20
150.1456921332
 10
58.3363094479
 20
149.2017672371
 10
56.7012064025
 20
148.1124198362
 10
55.3512958012
 20
146.8998259023
 10
54.3140579312
 20
145.5886703509
 10
53.6106079642
 20
144.205644528
 10
53.255266113
 20
142.7789028511
 10
53.2106781187
 20
142.0581962587
  0
LINE
  5
31E
330
25F
100
AcDbEntity
  8
0
  6
Continuous
 62
     7
370
    25
100
AcDbLine
 10
226.6883835421
 20
-366.9898217962
 30
0.0
 11
282.4284989122
 21
-366.9898217962
 31
0.0
  0
LINE
  5
31F
330
25F
100
AcDbEntity
  8
0
  6
Continuous
 62
     7
370
    25
100
AcDbLine
 10
282.9284582786
 20
-366.8558706586
 30
0.0
 11
642.5529166837
 21
-159.2490898559
 31
0.0
  0
LINE
  5
320
330
25F
100
AcDbEntity
  8
0
  6
Continuous
 62
     7
370
    25
100
AcDbLine
 10
-635.8960624342
 20
130.8149102409
 30
0.0
 11
226.1884241757
 21
-366.8558706586
 31
0.0
  0
LINE
  5
321
330
25F
100
AcDbEntity
  8
0
  6
Continuous
 62
     7
370
    25
100
AcDbLine
 10
643.0529573174
 20
-158.3830409935
 30
0.0
 11
643.0529573174
 21
-139.025220775
 31
0.0
  0
LINE
  5
322
330
25F
100
AcDbEntity
  8
0
  6
Continuous
 62
     7
370
    25
100
AcDbLine
 10
-28.0771238326
 20
126.9019533379
 30
0.0
 11
219.4102495827
 21
-15.969466231
 31
0.0
  0
LINE
  5
323
330
25F
100
AcDbEntity
  8
0
  6
Continuous
 62
     7
370
    25
100
AcDbLine
 10
-268.9077242658
 20
37.0970610374
 30
0.0
 11
-113.3442324047
 21
126.9019533379
 31
0.0
  0
LINE
  5
324
330
25F
100
AcDbEntity
  8
0
  6
Continuous
 62
     7
370
    25
100
AcDbLine
 10
-283.4237798801
 20
386.9834478817
 30
0.0
 11
-635.8960624342
 21
183.5055303124
 31
0.0
  0
LINE
  5
325
330
25F
100
AcDbEntity
  8
0
  6
Continuous
 62
     7
370
    25
100
AcDbLine
 10
643.0529573174
 20
-137.9695206964
 30
0.0
 11
643.0529573174
 21
-106.9409698447
 31
0.0
  0
LINE
  5
326
330
25F
100
AcDbEntity
  8
0
  6
Continuous
 62
     7
370
    25
100
AcDbLine
 10
642.5529166837
 20
-106.0749209824
 30
0.0
 11
-275.2716852964
 21
423.7739435906
 31
0.0
  0
LINE
  5
327
330
25F
100
AcDbEntity
  8
0
  6
Continuous
 62
     7
370
    25
100
AcDbLine
 10
-283.3426718409
 20
386.931254455
 30
0.0
 11
634.4819301392
 21
-142.9176101179
 31
0.0
  0
LINE
  5
328
330
25F
100
AcDbEntity
  8
0
  6
Continuous
 62
     7
370
    25
100
AcDbLine
 10
635.4818488718
 20
-142.9176101179
 30
0.0
 11
642.5529166837
 21
-138.8355695588
 31
0.0
  0
LINE
  5
329
330
25F
100
AcDbEntity
  8
0
  6
Continuous
 62
     7
370
    25
100
AcDbLine
 10
-283.8427124746
 20
418.8258541691
 30
0.0
 11
-283.8427124746
 21
387.7973033174
 31
0.0
  0
LINE
  5
32A
330
25F
100
AcDbEntity
  8
0
  6
Continuous
 62
     7
370
    25
100
AcDbLine
 10
-276.2716040291
 20
423.7739435906
 30
0.0
 11
-283.3426718409
 21
419.6919030315
 31
0.0
  0
LINE
  5
32B
330
25F
100
AcDbEntity
  8
0
  6
Continuous
 62
     7
370
    25
100
AcDbLine
 10
282.4284989122
 20
-347.786670835
 30
0.0
 11
226.6883835421
 21
-347.786670835
 31
0.0
  0
LINE
  5
32C
330
25F
100
AcDbEntity
  8
0
  6
Continuous
 62
     7
370
    25
100
AcDbLine
 10
226.6883835421
 20
-346.392842311
 30
0.0
 11
226.6883835421
 21
-366.9898217962
 31
0.0
  0
LINE
  5
32D
330
25F
100
AcDbEntity
  8
0
  6
Continuous
 62
     7
370
    25
100
AcDbLine
 10
226.6883835421
 20
-346.392842311
 30
0.0
 11
282.4284989122
 21
-346.392842311
 31
0.0
  0
LINE
  5
32E
330
25F
100
AcDbEntity
  8
0
  6
Continuous
 62
     7
370
    25
100
AcDbLine
 10
282.4284989122
 20
-366.9898217962
 30
0.0
 11
282.4284989122
 21
-346.392842311
 31
0.0
  0
LINE
  5
32F
330
25F
100
AcDbEntity
  8
0
  6
Continuous
 62
     7
370
    25
100
AcDbLine
 10
226.6883835421
 20
-366.5671095083
 30
0.0
 11
282.4284989122
 21
-366.5671095083
 31
0.0
  0
LINE
  5
330
330
25F
100
AcDbEntity
  8
0
  6
Continuous
 62
     7
370
    25
100
AcDbLine
 10
-635.3961030679
 20
151.2779385885
 30
0.0
 11
226.6883835421
 21
-346.392842311
 31
0.0
  0
LINE
  5
331
330
25F
100
AcDbEntity
  8
0
  6
Continuous
 62
     7
370
    25
100
AcDbLine
 10
-635.3961030679
 20
183.4560222619
 30
0.0
 11
-635.3961030679
 21
151.2779385885
 31
0.0
  0
LINE
  5
332
330
25F
100
AcDbEntity
  8
0
  6
Continuous
 62
     7
370
    25
100
AcDbLine
 10
223.0315292926
 20
-47.1092325844
 30
0.0
 11
67.4680374315
 21
-136.9141248849
 31
0.0
  0
LINE
  5
333
330
25F
100
AcDbEntity
  8
0
  6
Continuous
 62
     7
370
    25
100
AcDbLine
 10
-24.4558441227
 20
149.1668815654
 30
0.0
 11
223.0315292926
 21
6.2954619964
 31
0.0
  0
LINE
  5
334
330
25F
100
AcDbEntity
  8
0
  6
Continuous
 62
     7
370
    25
100
AcDbLine
 10
-272.5290039756
 20
59.3619892649
 30
0.0
 11
-116.9655121146
 21
149.1668815654
 31
0.0
  0
LINE
  5
335
330
25F
100
AcDbEntity
  8
0
  6
Continuous
 62
     7
370
    25
100
AcDbLine
 10
-25.0416305603
 20
-136.9141248849
 30
0.0
 11
-272.5290039756
 21
5.9572946841
 31
0.0
  0
LINE
  5
336
330
25F
100
AcDbEntity
  8
0
  6
Continuous
 62
     7
370
    25
100
AcDbLine
 10
642.7600640986
 20
-140.0108063761
 30
0.0
 11
283.1356056934
 21
-347.6175871788
 31
0.0
  0
LINE
  5
337
330
25F
100
AcDbEntity
  8
0
  6
Continuous
 62
     7
370
    25
100
AcDbLine
 10
225.9812767609
 20
-347.6175871788
 30
0.0
 11
-636.1032098491
 21
150.0531937207
 31
0.0
  0
LINE
  5
338
330
25F
100
AcDbEntity
  8
0
  6
Continuous
 62
     7
370
    25
100
AcDbLine
 10
283.1356056934
 20
-347.6175871788
 30
0.0
 11
283.1356056934
 21
-366.3980258522
 31
0.0
  0
LINE
  5
339
330
25F
100
AcDbEntity
  8
0
  6
Continuous
 62
     7
370
    25
100
AcDbLine
 10
225.9812767609
 20
-366.3980258522
 30
0.0
 11
225.9812767609
 21
-347.6175871788
 31
0.0
  0
LINE
  5
33A
330
25F
100
AcDbEntity
  8
0
  6
Continuous
 62
     7
370
    25
100
AcDbLine
 10
283.1356056934
 20
-366.3980258522
 30
0.0
 11
642.7600640986
 21
-158.7912450495
 31
0.0
  0
LINE
  5
33B
330
25F
100
AcDbEntity
  8
0
  6
Continuous
 62
     7
370
    25
100
AcDbLine
 10
642.7600640986
 20
-158.7912450495
 30
0.0
 11
642.7600640986
 21
-140.0108063761
 31
0.0
  0
LINE
  5
33C
330
25F
100
AcDbEntity
  8
0
  6
Continuous
 62
     7
370
    25
100
AcDbLine
 10
-636.1032098491
 20
131.2727550473
 30
0.0
 11
225.9812767609
 21
-366.3980258522
 31
0.0
  0
LINE
  5
33D
330
25F
100
AcDbEntity
  8
0
  6
Continuous
 62
     7
370
    25
100
AcDbLine
 10
-636.1032098491
 20
150.0531937207
 30
0.0
 11
-636.1032098491
 21
131.2727550473
 31
0.0
  0
LINE
  5
33E
330
25F
100
AcDbEntity
  8
0
  6
Continuous
 62
     7
370
    25
100
AcDbLine
 10
66.9680374315
 20
-136.8646402955
 30
0.0
 11
222.5315292926
 21
-47.059747995
 31
0.0
  0
LINE
  5
33F
330
25F
100
AcDbEntity
  8
0
  6
Continuous
 62
     7
370
    25
100
AcDbLine
 10
-272.0290039756
 20
6.0067792734
 30
0.0
 11
-24.5416305603
 21
-136.8646402955
 31
0.0
  0
LINE
  5
340
330
25F
100
AcDbEntity
  8
0
  6
Continuous
 62
     7
370
    25
100
AcDbLine
 10
222.5315292926
 20
5.7676588737
 30
0.0
 11
219.410208949
 21
0.3613734678
 31
0.0
  0
LINE
  5
341
330
25F
100
AcDbEntity
  8
0
  6
Continuous
 62
     7
370
    25
100
AcDbLine
 10
235.2495092804
 20
-32.2387543776
 30
0.0
 11
235.3192278674
 21
-32.4158382056
 31
0.0
  0
LINE
  5
342
330
25F
100
AcDbEntity
  8
0
  6
Continuous
 62
     7
370
    25
100
AcDbLine
 10
219.2031021678
 20
-15.5116214246
 30
0.0
 11
219.2031021678
 21
-0.3355682773
 31
0.0
  0
LINE
  5
343
330
25F
100
AcDbEntity
  8
0
  6
Continuous
 62
     7
370
    25
100
AcDbLine
 10
222.5315292926
 20
5.7676588737
 30
0.0
 11
-24.9558441227
 21
148.6390784427
 31
0.0
  0
LINE
  5
344
330
25F
100
AcDbEntity
  8
0
  6
Continuous
 62
     7
370
    25
100
AcDbLine
 10
-28.0771644663
 20
143.2327930368
 30
0.0
 11
219.410208949
 21
0.3613734678
 31
0.0
  0
LINE
  5
345
330
25F
100
AcDbEntity
  8
0
  6
Continuous
 62
     7
370
    25
100
AcDbLine
 10
-24.9558441227
 20
148.6390784427
 30
0.0
 11
-28.0771644663
 21
143.2327930368
 31
0.0
  0
LINE
  5
346
330
25F
100
AcDbEntity
  8
0
  6
Continuous
 62
     7
370
    25
100
AcDbLine
 10
219.2031021678
 20
-0.3355682773
 30
0.0
 11
-28.2842712475
 21
142.5358512917
 31
0.0
  0
LINE
  5
347
330
25F
100
AcDbEntity
  8
0
  6
Continuous
 62
     7
370
    25
100
AcDbLine
 10
-28.2842712475
 20
127.3597981444
 30
0.0
 11
219.2031021678
 21
-15.5116214246
 31
0.0
  0
LINE
  5
348
330
25F
100
AcDbEntity
  8
0
  6
Continuous
 62
     7
370
    25
100
AcDbLine
 10
-28.2842712475
 20
127.3597981444
 30
0.0
 11
-28.2842712475
 21
142.5358512917
 31
0.0
  0
LINE
  5
349
330
25F
100
AcDbEntity
  8
0
  6
Continuous
 62
     7
370
    25
100
AcDbLine
 10
-268.9076836321
 20
53.4279007363
 30
0.0
 11
-272.0290039756
 21
58.8341861422
 31
0.0
  0
LINE
  5
34A
330
25F
100
AcDbEntity
  8
0
  6
Continuous
 62
     7
370
    25
100
AcDbLine
 10
-284.8167025504
 20
20.6506890629
 30
0.0
 11
-284.6836691813
 21
20.9849852387
 31
0.0
  0
LINE
  5
34B
330
25F
100
AcDbEntity
  8
0
  6
Continuous
 62
     7
370
    25
100
AcDbLine
 10
-268.7005768509
 20
37.5549058439
 30
0.0
 11
-268.7005768509
 21
52.7309589912
 31
0.0
  0
LINE
  5
34C
330
25F
100
AcDbEntity
  8
0
  6
Continuous
 62
     7
370
    25
100
AcDbLine
 10
229.632034356
 20
60.4173850764
 30
0.0
 11
229.6211198428
 21
60.774132457
 31
0.0
  0
LINE
  5
34D
330
25F
100
AcDbEntity
  8
0
  6
Continuous
 62
     7
370
    25
100
AcDbLine
 10
194.632034356
 20
60.4173850764
 30
0.0
 11
194.6341697029
 21
60.259570429
 31
0.0
  0
LINE
  5
34E
330
25F
100
AcDbEntity
  8
0
  6
Continuous
 62
     7
370
    25
100
AcDbLine
 10
-116.4655121146
 20
148.6390784427
 30
0.0
 11
-272.0290039756
 21
58.8341861422
 31
0.0
  0
LINE
  5
34F
330
25F
100
AcDbEntity
  8
0
  6
Continuous
 62
     7
370
    25
100
AcDbLine
 10
-116.4655121146
 20
148.6390784427
 30
0.0
 11
-113.344191771
 21
143.2327930368
 31
0.0
  0
LINE
  5
350
330
25F
100
AcDbEntity
  8
0
  6
Continuous
 62
     7
370
    25
100
AcDbLine
 10
-268.9076836321
 20
53.4279007363
 30
0.0
 11
-113.344191771
 21
143.2327930368
 31
0.0
  0
LINE
  5
351
330
25F
100
AcDbEntity
  8
0
  6
Continuous
 62
     7
370
    25
100
AcDbLine
 10
-113.1370849898
 20
142.5358512917
 30
0.0
 11
-268.7005768509
 21
52.7309589912
 31
0.0
  0
LINE
  5
352
330
25F
100
AcDbEntity
  8
0
  6
Continuous
 62
     7
370
    25
100
AcDbLine
 10
-268.7005768509
 20
37.5549058439
 30
0.0
 11
-113.1370849898
 21
127.3597981444
 31
0.0
  0
LINE
  5
353
330
25F
100
AcDbEntity
  8
0
  6
Continuous
 62
     7
370
    25
100
AcDbLine
 10
-113.1370849898
 20
127.3597981444
 30
0.0
 11
-113.1370849898
 21
142.5358512917
 31
0.0
  0
LINE
  5
354
330
25F
100
AcDbEntity
  8
0
  6
Continuous
 62
     7
370
    25
100
AcDbLine
 10
158.9213562373
 20
101.2377906675
 30
0.0
 11
158.9104417242
 21
101.5945380481
 31
0.0
  0
LINE
  5
355
330
25F
100
AcDbEntity
  8
0
  6
Continuous
 62
     7
370
    25
100
AcDbLine
 10
123.9213562373
 20
101.2377906675
 30
0.0
 11
123.9234915842
 21
101.0799760201
 31
0.0
  0
LINE
  5
356
330
25F
100
AcDbEntity
  8
0
  6
Continuous
 62
     7
370
    25
100
AcDbLine
 10
88.2106781187
 20
142.0581962587
 30
0.0
 11
88.1997636055
 21
142.4149436392
 31
0.0
  0
LINE
  5
357
330
25F
100
AcDbEntity
  8
0
  6
Continuous
 62
     7
370
    25
100
AcDbLine
 10
53.2106781187
 20
142.0581962587
 30
0.0
 11
53.2128134656
 21
141.9003816112
 31
0.0
  0
LINE
  5
358
330
25F
100
AcDbEntity
  8
0
  6
Continuous
 62
     7
370
    25
100
AcDbLine
 10
-636.3961030679
 20
131.6809591033
 30
0.0
 11
-636.3961030679
 21
182.6394814501
 31
0.0
  0
LINE
  5
359
330
25F
100
AcDbEntity
  8
0
  6
Continuous
 62
     7
370
    25
100
AcDbLine
 10
635.6889962867
 20
-111.4312144598
 30
0.0
 11
635.6889962867
 21
-142.4597653114
 31
0.0
  0
LINE
  5
35A
330
25F
100
AcDbEntity
  8
0
  6
Continuous
 62
     7
370
    25
100
AcDbLine
 10
634.2747827243
 20
-142.4597653114
 30
0.0
 11
634.2747827243
 21
-111.4312144598
 31
0.0
  0
LINE
  5
35B
330
25F
100
AcDbEntity
  8
0
  6
Continuous
 62
     7
370
    25
100
AcDbLine
 10
642.7600640986
 20
-107.3491739007
 30
0.0
 11
635.6889962867
 21
-111.4312144598
 31
0.0
  0
LINE
  5
35C
330
25F
100
AcDbEntity
  8
0
  6
Continuous
 62
     7
370
    25
100
AcDbLine
 10
634.9818895055
 20
-110.206469592
 30
0.0
 11
642.0529573174
 21
-106.1244290329
 31
0.0
  0
LINE
  5
35D
330
25F
100
AcDbEntity
  8
0
  6
Continuous
 62
     7
370
    25
100
AcDbLine
 10
634.2747827243
 20
-111.4312144598
 30
0.0
 11
-283.5498192558
 21
418.4176501132
 31
0.0
  0
LINE
  5
35E
330
25F
100
AcDbEntity
  8
0
  6
Continuous
 62
     7
370
    25
100
AcDbLine
 10
-282.8427124746
 20
419.642394981
 30
0.0
 11
634.9818895055
 21
-110.206469592
 31
0.0
  0
LINE
  5
35F
330
25F
100
AcDbEntity
  8
0
  6
Continuous
 62
     7
370
    25
100
AcDbLine
 10
-283.5498192558
 20
418.4176501132
 30
0.0
 11
-283.5498192558
 21
387.3890992615
 31
0.0
  0
LINE
  5
360
330
25F
100
AcDbEntity
  8
0
  6
Continuous
 62
     7
370
    25
100
AcDbLine
 10
-283.5498192558
 20
387.3890992615
 30
0.0
 11
634.2747827243
 21
-142.4597653114
 31
0.0
  0
LINE
  5
361
330
25F
100
AcDbEntity
  8
0
  6
Continuous
 62
     7
370
    25
100
AcDbLine
 10
642.7600640986
 20
-138.3777247523
 30
0.0
 11
642.7600640986
 21
-107.3491739007
 31
0.0
  0
LINE
  5
362
330
25F
100
AcDbEntity
  8
0
  6
Continuous
 62
     7
370
    25
100
AcDbLine
 10
635.6889962867
 20
-142.4597653114
 30
0.0
 11
642.7600640986
 21
-138.3777247523
 31
0.0
  0
LINE
  5
363
330
25F
100
AcDbEntity
  8
0
  6
Continuous
 62
     7
370
    25
100
AcDbLine
 10
-275.7716446628
 20
423.7244355401
 30
0.0
 11
-282.8427124746
 21
419.642394981
 31
0.0
  0
LINE
  5
364
330
25F
100
AcDbEntity
  8
0
  6
Continuous
 62
     7
370
    25
100
AcDbLine
 10
642.0529573174
 20
-106.1244290329
 30
0.0
 11
-275.7716446628
 21
423.7244355401
 31
0.0
  0
LINE
  5
365
330
25F
100
AcDbEntity
  8
0
  6
Continuous
 62
     8
370
    25
100
AcDbLine
 10
282.4284989122
 20
-346.392842311
 30
0.0
 11
634.7231036353
 21
-143.0174959704
 31
0.0
  0
LINE
  5
366
330
25F
100
AcDbEntity
  8
0
  6
Continuous
 62
     8
370
    25
100
AcDbLine
 10
-283.1355720333
 20
386.8116982809
 30
0.0
 11
-635.3961030679
 21
183.4560222619
 31
0.0
  0
ARC
  5
367
330
25F
100
AcDbEntity
  8
0
  6
Continuous
 62
     7
370
    25
100
AcDbCircle
 10
282.4284989122
 20
-365.9898217962
 30
0.0
 40
1.000000000000113
100
AcDbArc
 50
270.0
 51
299.9973117337
  0
ARC
  5
368
330
25F
100
AcDbEntity
  8
0
  6
Continuous
 62
     7
370
    25
100
AcDbCircle
 10
226.6883835421
 20
-365.9898217962
 30
0.0
 40
1.00000000000028
100
AcDbArc
 50
240.0026882664
 51
270.0
  0
ARC
  5
369
330
25F
100
AcDbEntity
  8
0
  6
Continuous
 62
     7
370
    25
100
AcDbCircle
 10
642.0529573174
 20
-158.3830409935
 30
0.0
 40
0.9999999999996589
100
AcDbArc
 50
299.9973117337
 51
0.0
  0
ARC
  5
36A
330
25F
100
AcDbEntity
  8
0
  6
Continuous
 62
     7
370
    25
100
AcDbCircle
 10
-635.3961030679
 20
131.6809591033
 30
0.0
 40
1.000000000000126
100
AcDbArc
 50
180.0
 51
240.0026882664
  0
ARC
  5
36B
330
25F
100
AcDbEntity
  8
0
  6
Continuous
 62
     7
370
    25
100
AcDbCircle
 10
-635.3961030679
 20
182.6394814501
 30
0.0
 40
0.9999999999995453
100
AcDbArc
 50
119.9973117336
 51
180.0
  0
ARC
  5
36C
330
25F
100
AcDbEntity
  8
0
  6
Continuous
 62
     7
370
    25
100
AcDbCircle
 10
642.0529573174
 20
-106.9409698447
 30
0.0
 40
1.000000000000354
100
AcDbArc
 50
0.0
 51
60.0026882663
  0
ARC
  5
36D
330
25F
100
AcDbEntity
  8
0
  6
Continuous
 62
     7
370
    25
100
AcDbCircle
 10
634.9818895055
 20
-142.0515612555
 30
0.0
 40
1.000000000000658
100
AcDbArc
 50
240.0026882664
 51
299.9973117336
  0
ARC
  5
36E
330
25F
100
AcDbEntity
  8
0
  6
Continuous
 62
     7
370
    25
100
AcDbCircle
 10
642.0529573174
 20
-137.9695206964
 30
0.0
 40
0.9999999999996833
100
AcDbArc
 50
299.9973117337
 51
0.0
  0
ARC
  5
36F
330
25F
100
AcDbEntity
  8
0
  6
Continuous
 62
     7
370
    25
100
AcDbCircle
 10
-282.8427124746
 20
418.8258541691
 30
0.0
 40
0.9999999999998295
100
AcDbArc
 50
119.9973117336
 51
180.0
  0
ARC
  5
370
330
25F
100
AcDbEntity
  8
0
  6
Continuous
 62
     7
370
    25
100
AcDbCircle
 10
-275.7716446628
 20
422.9078947282
 30
0.0
 40
0.9999999999997609
100
AcDbArc
 50
60.0026882663
 51
119.9973117337
  0
ARC
  5
371
330
25F
100
AcDbEntity
  8
0
  6
Continuous
 62
     7
370
    25
100
AcDbCircle
 10
-282.8427124746
 20
387.7973033174
 30
0.0
 40
0.9999999999998518
100
AcDbArc
 50
180.0
 51
240.0026882664
  0
ARC
  5
372
330
25F
100
AcDbEntity
  8
0
  6
Continuous
 62
     7
370
    25
100
AcDbCircle
 10
281.6003895921
 20
-347.687448031
 30
0.0
 40
1.536804807572337
100
AcDbArc
 50
2.6054784857
 51
57.39452166
  0
ARC
  5
373
330
25F
100
AcDbEntity
  8
0
  6
Continuous
 62
     7
370
    25
100
AcDbCircle
 10
282.4573092504
 20
-346.3440556145
 30
0.0
 40
1.44290287610257
100
AcDbArc
 50
268.8559032542
 51
298.0402391154
  0
ARC
  5
374
330
25F
100
AcDbEntity
  8
0
  6
Continuous
 62
     7
370
    25
100
AcDbCircle
 10
227.5164928622
 20
-347.687448031
 30
0.0
 40
1.53680480757249
100
AcDbArc
 50
122.60547834
 51
177.3945215143
  0
ARC
  5
375
330
25F
100
AcDbEntity
  8
0
  6
Continuous
 62
     7
370
    25
100
AcDbCircle
 10
226.6595732039
 20
-346.3440556145
 30
0.0
 40
1.442902876101735
100
AcDbArc
 50
241.9597608846
 51
271.1440967458
  0
ARC
  5
376
330
25F
100
AcDbEntity
  8
0
  6
Continuous
 62
     7
370
    25
100
AcDbCircle
 10
641.6015715007
 20
-139.1413935775
 30
0.0
 40
1.448441822644295
100
AcDbArc
 50
323.1129077827
 51
26.2682316793
  0
ARC
  5
377
330
25F
100
AcDbEntity
  8
0
  6
Continuous
 62
     7
370
    25
100
AcDbCircle
 10
-634.5679937477
 20
149.9833328685
 30
0.0
 40
1.536804807572351
100
AcDbArc
 50
122.60547834
 51
177.3945215143
  0
ARC
  5
378
330
25F
100
AcDbEntity
  8
0
  6
Continuous
 62
     7
370
    25
100
AcDbCircle
 10
282.4573092504
 20
-365.1244942879
 30
0.0
 40
1.44290287610348
100
AcDbArc
 50
268.8559032542
 51
298.0402391154
  0
ARC
  5
379
330
25F
100
AcDbEntity
  8
0
  6
Continuous
 62
     7
370
    25
100
AcDbCircle
 10
226.6595732039
 20
-365.1244942879
 30
0.0
 40
1.442902876101735
100
AcDbArc
 50
241.9597608846
 51
271.1440967458
  0
ARC
  5
37A
330
25F
100
AcDbEntity
  8
0
  6
Continuous
 62
     7
370
    25
100
AcDbCircle
 10
-24.748716967
 20
-137.3229882232
 30
0.0
 40
0.5029588477822423
100
AcDbArc
 50
65.6860478386
 51
125.6181726599
  0
ARC
  5
37B
330
25F
100
AcDbEntity
  8
0
  6
Continuous
 62
     7
370
    25
100
AcDbCircle
 10
67.1751238382
 20
-137.3229882232
 30
0.0
 40
0.502958847782286
100
AcDbArc
 50
54.3818273401
 51
114.3139521614
  0
ARC
  5
37C
330
25F
100
AcDbEntity
  8
0
  6
Continuous
 62
     7
370
    25
100
AcDbCircle
 10
222.7386156992
 20
-47.5180959227
 30
0.0
 40
0.5029588477822341
100
AcDbArc
 50
54.3818273401
 51
114.3139521614
  0
ARC
  5
37D
330
25F
100
AcDbEntity
  8
0
  6
Continuous
 62
     7
370
    25
100
AcDbCircle
 10
-272.2360903823
 20
5.5484313458
 30
0.0
 40
0.5029588477822312
100
AcDbArc
 50
65.6860478386
 51
125.6181726599
  0
ARC
  5
37E
330
25F
100
AcDbEntity
  8
0
  6
Continuous
 62
     7
370
    25
100
AcDbCircle
 10
223.7950357375
 20
5.0714425413
 30
0.0
 40
1.442624593546531
100
AcDbArc
 50
121.9546716495
 51
151.1443911208
  0
ARC
  5
37F
330
25F
100
AcDbEntity
  8
0
  6
Continuous
 62
     7
370
    25
100
AcDbCircle
 10
201.3260778701
 20
-14.935424509
 30
0.0
 40
38.43772806351446
100
AcDbArc
 50
298.4164362886
 51
328.9015240896
  0
ARC
  5
380
330
25F
100
AcDbEntity
  8
0
  6
Continuous
 62
     7
370
    25
100
AcDbCircle
 10
216.106548771
 20
-24.8297458746
 30
0.0
 40
20.65799487516718
100
AcDbArc
 50
337.5800893283
 51
21.7787977302
  0
ARC
  5
381
330
25F
100
AcDbEntity
  8
0
  6
Continuous
 62
     7
370
    25
100
AcDbCircle
 10
220.6450673179
 20
-0.3848267033
 30
0.0
 40
1.44280625399935
100
AcDbArc
 50
148.8562722006
 51
178.043501357
  0
ARC
  5
382
330
25F
100
AcDbEntity
  8
0
  6
Continuous
 62
     7
370
    25
100
AcDbCircle
 10
-273.2925104206
 20
58.1379698098
 30
0.0
 40
1.442624593547363
100
AcDbArc
 50
28.8556088792
 51
58.0453283505
  0
ARC
  5
383
330
25F
100
AcDbEntity
  8
0
  6
Continuous
 62
     7
370
    25
100
AcDbCircle
 10
-252.5935774372
 20
42.3432656372
 30
0.0
 40
41.20771828183466
100
AcDbArc
 50
210.022886729
 51
241.8588505574
  0
ARC
  5
384
330
25F
100
AcDbEntity
  8
0
  6
Continuous
 62
     7
370
    25
100
AcDbCircle
 10
-26.8423060974
 20
142.4865928657
 30
0.0
 40
1.442806253999023
100
AcDbArc
 50
148.8562722006
 51
178.043501357
  0
ARC
  5
385
330
25F
100
AcDbEntity
  8
0
  6
Continuous
 62
     7
370
    25
100
AcDbCircle
 10
-23.6923376777
 20
147.9428621103
 30
0.0
 40
1.442624593547713
100
AcDbArc
 50
121.9546716495
 51
151.1443911208
  0
ARC
  5
386
330
25F
100
AcDbEntity
  8
0
  6
Continuous
 62
     7
370
    25
100
AcDbCircle
 10
-270.142542001
 20
52.6817005652
 30
0.0
 40
1.442806253998056
100
AcDbArc
 50
1.956498643
 51
31.1437277994
  0
ARC
  5
387
330
25F
100
AcDbEntity
  8
0
  6
Continuous
 62
     7
370
    25
100
AcDbCircle
 10
-265.6040234541
 20
28.2406498792
 30
0.0
 40
20.65799487516628
100
AcDbArc
 50
157.5800893283
 51
201.7787977302
  0
ARC
  5
388
330
25F
100
AcDbEntity
  8
0
  6
Continuous
 62
     7
370
    25
100
AcDbCircle
 10
-114.5790501399
 20
142.4865928657
 30
0.0
 40
1.442806253999639
100
AcDbArc
 50
1.956498643
 51
31.1437277994
  0
ARC
  5
389
330
25F
100
AcDbEntity
  8
0
  6
Continuous
 62
     7
370
    25
100
AcDbCircle
 10
-117.7290185596
 20
147.9428621103
 30
0.0
 40
1.442624593546388
100
AcDbArc
 50
28.8556088792
 51
58.0453283505
  0
ARC
  5
38A
330
25F
100
AcDbEntity
  8
0
  6
Continuous
 62
     7
370
    25
100
AcDbCircle
 10
-635.4794183435
 20
150.3593633475
 30
0.0
 40
0.9223458725591621
100
AcDbArc
 50
84.8174221345
 51
173.6486598634
  0
ARC
  5
38B
330
25F
100
AcDbEntity
  8
0
  6
Continuous
 62
     7
370
    25
100
AcDbCircle
 10
-635.8956460054
 20
150.5113041535
 30
0.0
 40
0.5029392784940726
100
AcDbArc
 50
185.6947992512
 51
245.6253417064
  0
ARC
  5
38C
330
25F
100
AcDbEntity
  8
0
  6
Continuous
 62
     7
370
    25
100
AcDbCircle
 10
-635.4794183435
 20
182.5374470209
 30
0.0
 40
0.9223458725586925
100
AcDbArc
 50
84.8174221345
 51
173.6486598634
  0
ARC
  5
38D
330
25F
100
AcDbEntity
  8
0
  6
Continuous
 62
     7
370
    25
100
AcDbCircle
 10
-635.8956460054
 20
131.7308654802
 30
0.0
 40
0.5029392784940726
100
AcDbArc
 50
185.6947992512
 51
245.6253417064
  0
ARC
  5
38E
330
25F
100
AcDbEntity
  8
0
  6
Continuous
 62
     7
370
    25
100
AcDbCircle
 10
635.8099988257
 20
-111.501075312
 30
0.0
 40
1.536804807573222
100
AcDbArc
 50
122.60547834
 51
177.3945215143
  0
ARC
  5
38F
330
25F
100
AcDbEntity
  8
0
  6
Continuous
 62
     7
370
    25
100
AcDbCircle
 10
634.1537801853
 20
-111.501075312
 30
0.0
 40
1.536804807571017
100
AcDbArc
 50
2.6054784856
 51
57.39452166
  0
ARC
  5
390
330
25F
100
AcDbEntity
  8
0
  6
Continuous
 62
     7
370
    25
100
AcDbCircle
 10
634.9818895055
 20
-110.0665033748
 30
0.0
 40
1.537021907911885
100
AcDbArc
 50
242.6096722366
 51
297.3903277634
  0
ARC
  5
391
330
25F
100
AcDbEntity
  8
0
  6
Continuous
 62
     7
370
    25
100
AcDbCircle
 10
634.9818895055
 20
-141.0950542265
 30
0.0
 40
1.537021907911847
100
AcDbArc
 50
242.6096722366
 51
297.3903277634
  0
ARC
  5
392
330
25F
100
AcDbEntity
  8
0
  6
Continuous
 62
     7
370
    25
100
AcDbCircle
 10
641.2248479972
 20
-107.4190347529
 30
0.0
 40
1.536804807571247
100
AcDbArc
 50
2.6054784856
 51
57.39452166
  0
ARC
  5
393
330
25F
100
AcDbEntity
  8
0
  6
Continuous
 62
     7
370
    25
100
AcDbCircle
 10
-282.0146031544
 20
418.3477892609
 30
0.0
 40
1.536804807571999
100
AcDbArc
 50
122.60547834
 51
177.3945215143
  0
ARC
  5
394
330
25F
100
AcDbEntity
  8
0
  6
Continuous
 62
     8
370
    25
100
AcDbCircle
 10
282.6599201376
 20
-366.4585898808
 30
0.0
 40
0.4795255463719678
100
AcDbArc
 50
304.0563508284
 51
7.255829565
  0
ARC
  5
395
330
25F
100
AcDbEntity
  8
0
  6
Continuous
 62
     8
370
    25
100
AcDbCircle
 10
226.4712786637
 20
-366.4521125893
 30
0.0
 40
0.4929779303984392
100
AcDbArc
 50
173.7011525088
 51
234.9866670978
  0
ARC
  5
396
330
25F
100
AcDbEntity
  8
0
  6
Continuous
 62
     8
370
    25
100
AcDbCircle
 10
642.2843785425
 20
-158.851809078
 30
0.0
 40
0.4795255466088836
100
AcDbArc
 50
304.0563508458
 51
7.2558295476
  0
ARC
  5
397
330
25F
100
AcDbEntity
  8
0
  6
Continuous
 62
     8
370
    25
100
AcDbCircle
 10
-635.6132079465
 20
131.2186683101
 30
0.0
 40
0.4929779301928406
100
AcDbArc
 50
173.7011524947
 51
234.9866671119
  0
ARC
  5
398
330
25F
100
AcDbEntity
  8
0
  6
Continuous
 62
     8
370
    25
100
AcDbCircle
 10
642.5525002549
 20
-158.3331346166
 30
0.0
 40
0.5029392784947965
100
AcDbArc
 50
294.3746582936
 51
354.3052007487
  0
ARC
  5
399
330
25F
100
AcDbEntity
  8
0
  6
Continuous
 62
     8
370
    25
100
AcDbCircle
 10
219.704135737
 20
-15.5608237492
 30
0.0
 40
0.5034436474827948
100
AcDbArc
 50
174.391442453
 51
234.1664077993
  0
ARC
  5
39A
330
25F
100
AcDbEntity
  8
0
  6
Continuous
 62
     8
370
    25
100
AcDbCircle
 10
-27.8085856916
 20
127.2992341158
 30
0.0
 40
0.4795255464033878
100
AcDbArc
 50
172.7441704373
 51
235.9436491693
  0
ARC
  5
39B
330
25F
100
AcDbEntity
  8
0
  6
Continuous
 62
     8
370
    25
100
AcDbCircle
 10
-269.2014184796
 20
37.5056688403
 30
0.0
 40
0.5032560179564743
100
AcDbArc
 50
305.7640763813
 51
5.6146225298
  0
ARC
  5
39C
330
25F
100
AcDbEntity
  8
0
  6
Continuous
 62
     8
370
    25
100
AcDbCircle
 10
212.1311093134
 20
22.0745421413
 30
0.0
 40
29.66761533836298
100
AcDbArc
 50
79.4324319301
 51
100.2375951337
  0
ARC
  5
39D
330
25F
100
AcDbEntity
  8
0
  6
Continuous
 62
     8
370
    25
100
AcDbCircle
 10
-113.6127705458
 20
127.2992341158
 30
0.0
 40
0.4795255464817669
100
AcDbArc
 50
304.0563508365
 51
7.2558295569
  0
ARC
  5
39E
330
25F
100
AcDbEntity
  8
0
  6
Continuous
 62
     8
370
    25
100
AcDbCircle
 10
141.4204311947
 20
62.8949477324
 30
0.0
 40
29.66761533836611
100
AcDbArc
 50
79.4324319301
 51
100.2375951337
  0
ARC
  5
39F
330
25F
100
AcDbEntity
  8
0
  6
Continuous
 62
     8
370
    25
100
AcDbCircle
 10
70.709753076
 20
103.7153533235
 30
0.0
 40
29.66761533836327
100
AcDbArc
 50
79.4324319301
 51
100.2375951337
  0
ARC
  5
3A0
330
25F
100
AcDbEntity
  8
0
  6
Continuous
 62
     8
370
    25
100
AcDbCircle
 10
-635.6890231227
 20
183.0471409328
 30
0.0
 40
0.5029772359017376
100
AcDbArc
 50
54.3824225248
 51
114.3071190461
  0
ARC
  5
3A1
330
25F
100
AcDbEntity
  8
0
  6
Continuous
 62
     8
370
    25
100
AcDbCircle
 10
642.5525002549
 20
-106.8910634678
 30
0.0
 40
0.5029392784941871
100
AcDbArc
 50
294.3746582936
 51
354.3052007488
  0
ARC
  5
3A2
330
25F
100
AcDbEntity
  8
0
  6
Continuous
 62
     8
370
    25
100
AcDbCircle
 10
642.3458773722
 20
-106.533310362
 30
0.0
 40
0.5029772359024319
100
AcDbArc
 50
65.6928809539
 51
125.6175774752
  0
ARC
  5
3A3
330
25F
100
AcDbEntity
  8
0
  6
Continuous
 62
     8
370
    25
100
AcDbCircle
 10
642.5525002549
 20
-137.9196143195
 30
0.0
 40
0.5029392784947965
100
AcDbArc
 50
294.3746582936
 51
354.3052007487
  0
ARC
  5
3A4
330
25F
100
AcDbEntity
  8
0
  6
Continuous
 62
     8
370
    25
100
AcDbCircle
 10
-275.4787246079
 20
423.315554211
 30
0.0
 40
0.5029772359016315
100
AcDbArc
 50
65.6928809539
 51
125.6175774752
  0
ARC
  5
3A5
330
25F
100
AcDbEntity
  8
0
  6
Continuous
 62
     8
370
    25
100
AcDbCircle
 10
634.7647846268
 20
-142.5138520487
 30
0.0
 40
0.492977930082488
100
AcDbArc
 50
173.7011524871
 51
234.9866671195
  0
ARC
  5
3A6
330
25F
100
AcDbEntity
  8
0
  6
Continuous
 62
     8
370
    25
100
AcDbCircle
 10
635.1989943843
 20
-142.5138520488
 30
0.0
 40
0.4929779300468786
100
AcDbArc
 50
305.013332878
 51
6.2988475154
  0
ARC
  5
3A7
330
25F
100
AcDbEntity
  8
0
  6
Continuous
 62
     8
370
    25
100
AcDbCircle
 10
-283.0598173535
 20
387.3350125241
 30
0.0
 40
0.4929779299536069
100
AcDbArc
 50
173.7011524782
 51
234.9866671284
  0
ARC
  5
3A8
330
25F
100
AcDbEntity
  8
0
  6
Continuous
 62
     8
370
    25
100
AcDbCircle
 10
642.2843785425
 20
-138.4382887808
 30
0.0
 40
0.4795255466089709
100
AcDbArc
 50
304.0563508458
 51
7.2558295476
  0
ARC
  5
3A9
330
25F
100
AcDbEntity
  8
0
  6
Continuous
 62
     8
370
    25
100
AcDbCircle
 10
-283.3422554121
 20
418.875760546
 30
0.0
 40
0.5029392784936919
100
AcDbArc
 50
185.6947992512
 51
245.6253417064
  0
ARC
  5
3AA
330
25F
100
AcDbEntity
  8
0
  6
Continuous
 62
     8
370
    25
100
AcDbCircle
 10
-283.1356325295
 20
419.2335136519
 30
0.0
 40
0.5029772359018694
100
AcDbArc
 50
54.3824225248
 51
114.3071190461
  0
ARC
  5
3AB
330
25F
100
AcDbEntity
  8
0
  6
Continuous
 62
     8
370
    25
100
AcDbCircle
 10
-283.3422554121
 20
387.8472096943
 30
0.0
 40
0.5029392784936919
100
AcDbArc
 50
185.6947992512
 51
245.6253417064
  0
ARC
  5
3AC
330
25F
100
AcDbEntity
  8
0
  6
Continuous
 62
     8
370
    25
100
AcDbCircle
 10
-276.0645647176
 20
423.315554211
 30
0.0
 40
0.5029772359018495
100
AcDbArc
 50
54.3824225248
 51
114.3071190461
  0
VIEWPORT
  5
3B5
330
25F
100
AcDbEntity
  8
0
100
AcDbViewport
 10
0.0
 20
0.0
 30
0.0
 40
205.6
 41
156.0
 68
     1
 69
     1
 12
0.0
 22
-32.5
 13
0.0
 23
0.0
 14
10.0
 24
10.0
 15
10.0
 25
10.0
 16
0.0
 26
0.0
 36
1.0
 17
0.0
 27
0.0
 37
0.0
 42
50.0
 43
0.0
 44
0.0
 45
1006.1089494163
 50
0.0
 51
0.0
 72
   100
 90
   557152
  1

281
     0
 71
     1
 74
     0
110
0.0
120
0.0
130
0.0
111
1.0
121
0.0
131
0.0
112
0.0
122
1.0
132
0.0
 79
     0
146
0.0
  0
ENDBLK
  5
262
330
25F
100
AcDbEntity
  8
0
100
AcDbBlockEnd
  0
ENDSEC
  0
SECTION
  2
ENTITIES
  0
LINE
  5
95
330
1F
100
AcDbEntity
  8
0
  6
Continuous
 62
     7
370
    25
100
AcDbLine
 10
650.0
 20
-1.0
 30
0.0
 11
-650.0
 21
-1.0
 31
0.0
  0
LINE
  5
96
330
1F
100
AcDbEntity
  8
0
  6
Continuous
 62
     7
370
    25
100
AcDbLine
 10
649.0
 20
-25.0
 30
0.0
 11
-649.0
 21
-25.0
 31
0.0
  0
LINE
  5
97
330
1F
100
AcDbEntity
  8
0
  6
Continuous
 62
     7
370
    25
100
AcDbLine
 10
-650.0
 20
-24.0
 30
0.0
 11
-650.0
 21
-1.0
 31
0.0
  0
LINE
  5
98
330
1F
100
AcDbEntity
  8
0
  6
Continuous
 62
     7
370
    25
100
AcDbLine
 10
650.0
 20
-1.0
 30
0.0
 11
650.0
 21
-24.0
 31
0.0
  0
LINE
  5
99
330
1F
100
AcDbEntity
  8
0
  6
Continuous
 62
     7
370
    25
100
AcDbLine
 10
-649.0
 20
0.0
 30
0.0
 11
649.0
 21
0.0
 31
0.0
  0
LINE
  5
9A
330
1F
100
AcDbEntity
  8
0
  6
Continuous
 62
     7
370
    25
100
AcDbLine
 10
649.0
 20
-65.0
 30
0.0
 11
649.0
 21
0.0
 31
0.0
  0
LINE
  5
9B
330
1F
100
AcDbEntity
  8
0
  6
Continuous
 62
     7
370
    25
100
AcDbLine
 10
-650.0
 20
-64.0
 30
0.0
 11
650.0
 21
-64.0
 31
0.0
  0
LINE
  5
9C
330
1F
100
AcDbEntity
  8
0
  6
Continuous
 62
     7
370
    25
100
AcDbLine
 10
-649.0
 20
0.0
 30
0.0
 11
-649.0
 21
-65.0
 31
0.0
  0
LINE
  5
9D
330
1F
100
AcDbEntity
  8
0
  6
Continuous
 62
     7
370
    25
100
AcDbLine
 10
650.0
 20
-26.0
 30
0.0
 11
-650.0
 21
-26.0
 31
0.0
  0
LINE
  5
9E
330
1F
100
AcDbEntity
  8
0
  6
Continuous
 62
     7
370
    25
100
AcDbLine
 10
650.0
 20
-26.0
 30
0.0
 11
650.0
 21
-64.0
 31
0.0
  0
LINE
  5
9F
330
1F
100
AcDbEntity
  8
0
  6
Continuous
 62
     7
370
    25
100
AcDbLine
 10
-650.0
 20
-64.0
 30
0.0
 11
-650.0
 21
-26.0
 31
0.0
  0
LINE
  5
A0
330
1F
100
AcDbEntity
  8
0
  6
Continuous
 62
     7
370
    25
100
AcDbLine
 10
649.0
 20
-65.0
 30
0.0
 11
-649.0
 21
-65.0
 31
0.0
  0
ARC
  5
A1
330
1F
100
AcDbEntity
  8
0
  6
Continuous
 62
     7
370
    25
100
AcDbCircle
 10
-649.0
 20
-1.0
 30
0.0
 40
1.0
100
AcDbArc
 50
90.0
 51
180.0
  0
ARC
  5
A2
330
1F
100
AcDbEntity
  8
0
  6
Continuous
 62
     7
370
    25
100
AcDbCircle
 10
-649.0
 20
-24.0
 30
0.0
 40
1.0
100
AcDbArc
 50
180.0
 51
270.0
  0
ARC
  5
A3
330
1F
100
AcDbEntity
  8
0
  6
Continuous
 62
     7
370
    25
100
AcDbCircle
 10
649.0
 20
-24.0
 30
0.0
 40
1.000000000000114
100
AcDbArc
 50
270.0
 51
360.0
  0
ARC
  5
A4
330
1F
100
AcDbEntity
  8
0
  6
Continuous
 62
     7
370
    25
100
AcDbCircle
 10
649.0
 20
-1.0
 30
0.0
 40
1.0
100
AcDbArc
 50
0.0
 51
90.0
  0
ARC
  5
A5
330
1F
100
AcDbEntity
  8
0
  6
Continuous
 62
     7
370
    25
100
AcDbCircle
 10
649.0
 20
-64.0
 30
0.0
 40
1.0
100
AcDbArc
 50
270.0
 51
0.0
  0
ARC
  5
A6
330
1F
100
AcDbEntity
  8
0
  6
Continuous
 62
     7
370
    25
100
AcDbCircle
 10
649.0
 20
-26.0
 30
0.0
 40
1.000000000000004
100
AcDbArc
 50
0.0
 51
90.0
  0
ARC
  5
A7
330
1F
100
AcDbEntity
  8
0
  6
Continuous
 62
     7
370
    25
100
AcDbCircle
 10
-649.0
 20
-64.0
 30
0.0
 40
1.0
100
AcDbArc
 50
180.0
 51
270.0
  0
ARC
  5
A8
330
1F
100
AcDbEntity
  8
0
  6
Continuous
 62
     7
370
    25
100
AcDbCircle
 10
-649.0
 20
-26.0
 30
0.0
 40
1.000000000000004
100
AcDbArc
 50
90.0
 51
180.0
  0
CIRCLE
  5
B5
330
1B
100
AcDbEntity
 67
     1
  8
0
  6
Continuous
 62
     7
370
    25
100
AcDbCircle
 10
0.0
 20
200.0
 30
0.0
 40
18.50000000000009
  0
CIRCLE
  5
B6
330
1B
100
AcDbEntity
 67
     1
  8
0
  6
Continuous
 62
     7
370
    25
100
AcDbCircle
 10
100.0
 20
200.0
 30
0.0
 40
18.49999999999997
  0
CIRCLE
  5
B7
330
1B
100
AcDbEntity
 67
     1
  8
0
  6
Continuous
 62
     7
370
    25
100
AcDbCircle
 10
-100.0
 20
200.0
 30
0.0
 40
18.50000000000009
  0
CIRCLE
  5
C0
330
1B
100
AcDbEntity
 67
     1
  8
0
  6
Continuous
 62
     7
370
    25
100
AcDbCircle
 10
-100.0
 20
200.0
 30
0.0
 40
17.50000000000007
  0
CIRCLE
  5
C4
330
1B
100
AcDbEntity
 67
     1
  8
0
  6
Continuous
 62
     7
370
    25
100
AcDbCircle
 10
100.0
 20
200.0
 30
0.0
 40
17.50000000000003
  0
CIRCLE
  5
C7
330
1B
100
AcDbEntity
 67
     1
  8
0
  6
Continuous
 62
     7
370
    25
100
AcDbCircle
 10
0.0
 20
200.0
 30
0.0
 40
17.50000000000001
  0
LINE
  5
111
330
1B
100
AcDbEntity
 67
     1
  8
0
  6
Continuous
 62
     7
370
    25
100
AcDbLine
 10
-610.2928932188
 20
-289.7071067812
 30
0.0
 11
-649.7071067812
 21
-250.2928932188
 31
0.0
  0
LINE
  5
112
330
1B
100
AcDbEntity
 67
     1
  8
0
  6
Continuous
 62
     7
370
    25
100
AcDbLine
 10
-649.7071067812
 20
-250.2928932188
 30
0.0
 11
-649.0
 21
-249.5857864376
 31
0.0
  0
LINE
  5
113
330
1B
100
AcDbEntity
 67
     1
  8
0
  6
Continuous
 62
     7
370
    25
100
AcDbLine
 10
-649.0
 20
-249.5857864376
 30
0.0
 11
-609.5857864376
 21
-289.0
 31
0.0
  0
LINE
  5
114
330
1B
100
AcDbEntity
 67
     1
  8
0
  6
Continuous
 62
     7
370
    25
100
AcDbLine
 10
-610.2928932188
 20
-289.7071067812
 30
0.0
 11
-609.5857864376
 21
-289.0
 31
0.0
  0
LINE
  5
115
330
1B
100
AcDbEntity
 67
     1
  8
0
  6
Continuous
 62
     7
370
    25
100
AcDbLine
 10
-235.0
 20
-145.0
 30
0.0
 11
-240.4142135624
 21
-145.0
 31
0.0
  0
LINE
  5
116
330
1B
100
AcDbEntity
 67
     1
  8
0
  6
Continuous
 62
     7
370
    25
100
AcDbLine
 10
-175.0
 20
-205.0
 30
0.0
 11
-175.0
 21
-210.4142135624
 31
0.0
  0
LINE
  5
117
330
1B
100
AcDbEntity
 67
     1
  8
0
  6
Continuous
 62
     7
370
    25
100
AcDbLine
 10
-650.0
 20
-249.5857864376
 30
0.0
 11
-649.0
 21
-249.5857864376
 31
0.0
  0
LINE
  5
118
330
1B
100
AcDbEntity
 67
     1
  8
0
  6
Continuous
 62
     7
370
    25
100
AcDbLine
 10
609.5857864376
 20
-289.0
 30
0.0
 11
649.0
 21
-249.5857864376
 31
0.0
  0
LINE
  5
119
330
1B
100
AcDbEntity
 67
     1
  8
0
  6
Continuous
 62
     7
370
    25
100
AcDbLine
 10
-609.5857864376
 20
-289.0
 30
0.0
 11
609.5857864376
 21
-289.0
 31
0.0
  0
LINE
  5
11A
330
1B
100
AcDbEntity
 67
     1
  8
0
  6
Continuous
 62
     7
370
    25
100
AcDbLine
 10
240.4142135624
 20
75.0
 30
0.0
 11
240.4142135624
 21
-145.0
 31
0.0
  0
LINE
  5
11B
330
1B
100
AcDbEntity
 67
     1
  8
0
  6
Continuous
 62
     7
370
    25
100
AcDbLine
 10
-175.0
 20
140.4142135624
 30
0.0
 11
175.0
 21
140.4142135624
 31
0.0
  0
LINE
  5
11C
330
1B
100
AcDbEntity
 67
     1
  8
0
  6
Continuous
 62
     7
370
    25
100
AcDbLine
 10
-240.4142135624
 20
-145.0
 30
0.0
 11
-240.4142135624
 21
75.0
 31
0.0
  0
LINE
  5
11D
330
1B
100
AcDbEntity
 67
     1
  8
0
  6
Continuous
 62
     7
370
    25
100
AcDbLine
 10
175.0
 20
-210.4142135624
 30
0.0
 11
-175.0
 21
-210.4142135624
 31
0.0
  0
LINE
  5
11E
330
1B
100
AcDbEntity
 67
     1
  8
0
  6
Continuous
 62
     7
370
    25
100
AcDbLine
 10
-650.0
 20
-249.5857864376
 30
0.0
 11
-650.0
 21
259.0
 31
0.0
  0
LINE
  5
11F
330
1B
100
AcDbEntity
 67
     1
  8
0
  6
Continuous
 62
     7
370
    25
100
AcDbLine
 10
649.7071067812
 20
-250.2928932188
 30
0.0
 11
610.2928932188
 21
-289.7071067812
 31
0.0
  0
LINE
  5
120
330
1B
100
AcDbEntity
 67
     1
  8
0
  6
Continuous
 62
     7
370
    25
100
AcDbLine
 10
610.2928932188
 20
-289.7071067812
 30
0.0
 11
609.5857864376
 21
-289.0
 31
0.0
  0
LINE
  5
121
330
1B
100
AcDbEntity
 67
     1
  8
0
  6
Continuous
 62
     7
370
    25
100
AcDbLine
 10
649.7071067812
 20
-250.2928932188
 30
0.0
 11
649.0
 21
-249.5857864376
 31
0.0
  0
LINE
  5
122
330
1B
100
AcDbEntity
 67
     1
  8
0
  6
Continuous
 62
     7
370
    25
100
AcDbLine
 10
649.0
 20
-249.5857864376
 30
0.0
 11
650.0
 21
-249.5857864376
 31
0.0
  0
LINE
  5
123
330
1B
100
AcDbEntity
 67
     1
  8
0
  6
Continuous
 62
     7
370
    25
100
AcDbLine
 10
175.0
 20
-205.0
 30
0.0
 11
175.0
 21
-210.4142135624
 31
0.0
  0
LINE
  5
124
330
1B
100
AcDbEntity
 67
     1
  8
0
  6
Continuous
 62
     7
370
    25
100
AcDbLine
 10
235.0
 20
-145.0
 30
0.0
 11
240.4142135624
 21
-145.0
 31
0.0
  0
LINE
  5
125
330
1B
100
AcDbEntity
 67
     1
  8
0
  6
Continuous
 62
     7
370
    25
100
AcDbLine
 10
650.0
 20
259.0
 30
0.0
 11
650.0
 21
-249.5857864376
 31
0.0
  0
LINE
  5
126
330
1B
100
AcDbEntity
 67
     1
  8
0
  6
Continuous
 62
     7
370
    25
100
AcDbLine
 10
-240.4142135624
 20
75.0
 30
0.0
 11
-235.0
 21
75.0
 31
0.0
  0
LINE
  5
127
330
1B
100
AcDbEntity
 67
     1
  8
0
  6
Continuous
 62
     7
370
    25
100
AcDbLine
 10
-175.0
 20
140.4142135624
 30
0.0
 11
-175.0
 21
135.0
 31
0.0
  0
LINE
  5
128
330
1B
100
AcDbEntity
 67
     1
  8
0
  6
Continuous
 62
     7
370
    25
100
AcDbLine
 10
-239.7071067812
 20
75.0
 30
0.0
 11
-239.7071067812
 21
-145.0
 31
0.0
  0
LINE
  5
129
330
1B
100
AcDbEntity
 67
     1
  8
0
  6
Continuous
 62
     7
370
    25
100
AcDbLine
 10
-609.5857864376
 20
-290.0
 30
0.0
 11
-609.5857864376
 21
-289.0
 31
0.0
  0
LINE
  5
12A
330
1B
100
AcDbEntity
 67
     1
  8
0
  6
Continuous
 62
     7
370
    25
100
AcDbLine
 10
239.7071067812
 20
-145.0
 30
0.0
 11
239.7071067812
 21
75.0
 31
0.0
  0
LINE
  5
12B
330
1B
100
AcDbEntity
 67
     1
  8
0
  6
Continuous
 62
     7
370
    25
100
AcDbLine
 10
240.4142135624
 20
75.0
 30
0.0
 11
235.0
 21
75.0
 31
0.0
  0
LINE
  5
12C
330
1B
100
AcDbEntity
 67
     1
  8
0
  6
Continuous
 62
     7
370
    25
100
AcDbLine
 10
609.5857864376
 20
-290.0
 30
0.0
 11
609.5857864376
 21
-289.0
 31
0.0
  0
LINE
  5
12D
330
1B
100
AcDbEntity
 67
     1
  8
0
  6
Continuous
 62
     7
370
    25
100
AcDbLine
 10
-175.0
 20
-209.7071067812
 30
0.0
 11
175.0
 21
-209.7071067812
 31
0.0
  0
LINE
  5
12E
330
1B
100
AcDbEntity
 67
     1
  8
0
  6
Continuous
 62
     7
370
    25
100
AcDbLine
 10
175.0
 20
140.4142135624
 30
0.0
 11
175.0
 21
135.0
 31
0.0
  0
LINE
  5
12F
330
1B
100
AcDbEntity
 67
     1
  8
0
  6
Continuous
 62
     7
370
    25
100
AcDbLine
 10
175.0
 20
139.7071067812
 30
0.0
 11
-175.0
 21
139.7071067812
 31
0.0
  0
LINE
  5
130
330
1B
100
AcDbEntity
 67
     1
  8
0
  6
Continuous
 62
     7
370
    25
100
AcDbLine
 10
609.5857864376
 20
-290.0
 30
0.0
 11
-609.5857864376
 21
-290.0
 31
0.0
  0
LINE
  5
131
330
1B
100
AcDbEntity
 67
     1
  8
0
  6
Continuous
 62
     7
370
    25
100
AcDbLine
 10
175.0
 20
-205.2928932188
 30
0.0
 11
-175.0
 21
-205.2928932188
 31
0.0
  0
LINE
  5
132
330
1B
100
AcDbEntity
 67
     1
  8
0
  6
Continuous
 62
     7
370
    25
100
AcDbLine
 10
235.2928932188
 20
75.0
 30
0.0
 11
235.2928932188
 21
-145.0
 31
0.0
  0
LINE
  5
133
330
1B
100
AcDbEntity
 67
     1
  8
0
  6
Continuous
 62
     7
370
    25
100
AcDbLine
 10
-175.0
 20
135.2928932188
 30
0.0
 11
175.0
 21
135.2928932188
 31
0.0
  0
LINE
  5
134
330
1B
100
AcDbEntity
 67
     1
  8
0
  6
Continuous
 62
     7
370
    25
100
AcDbLine
 10
-235.2928932188
 20
-145.0
 30
0.0
 11
-235.2928932188
 21
75.0
 31
0.0
  0
LINE
  5
135
330
1B
100
AcDbEntity
 67
     1
  8
0
  6
Continuous
 62
     7
370
    25
100
AcDbLine
 10
-235.0
 20
75.0
 30
0.0
 11
-235.0
 21
-145.0
 31
0.0
  0
LINE
  5
136
330
1B
100
AcDbEntity
 67
     1
  8
0
  6
Continuous
 62
     7
370
    25
100
AcDbLine
 10
175.0
 20
135.0
 30
0.0
 11
-175.0
 21
135.0
 31
0.0
  0
LINE
  5
137
330
1B
100
AcDbEntity
 67
     1
  8
0
  6
Continuous
 62
     7
370
    25
100
AcDbLine
 10
235.0
 20
-145.0
 30
0.0
 11
235.0
 21
75.0
 31
0.0
  0
LINE
  5
138
330
1B
100
AcDbEntity
 67
     1
  8
0
  6
Continuous
 62
     7
370
    25
100
AcDbLine
 10
-175.0
 20
-205.0
 30
0.0
 11
175.0
 21
-205.0
 31
0.0
  0
LINE
  5
139
330
1B
100
AcDbEntity
 67
     1
  8
0
  6
Continuous
 62
     7
370
    25
100
AcDbLine
 10
-649.0
 20
260.0
 30
0.0
 11
-649.0
 21
-249.5857864376
 31
0.0
  0
LINE
  5
13A
330
1B
100
AcDbEntity
 67
     1
  8
0
  6
Continuous
 62
     7
370
    25
100
AcDbLine
 10
-650.0
 20
249.0
 30
0.0
 11
650.0
 21
249.0
 31
0.0
  0
LINE
  5
13B
330
1B
100
AcDbEntity
 67
     1
  8
0
  6
Continuous
 62
     7
370
    25
100
AcDbLine
 10
649.0
 20
248.0
 30
0.0
 11
-649.0
 21
248.0
 31
0.0
  0
LINE
  5
13C
330
1B
100
AcDbEntity
 67
     1
  8
0
  6
Continuous
 62
     7
370
    25
100
AcDbLine
 10
649.0
 20
-249.5857864376
 30
0.0
 11
649.0
 21
260.0
 31
0.0
  0
LINE
  5
13D
330
1B
100
AcDbEntity
 67
     1
  8
0
  6
Continuous
 62
     7
370
    25
100
AcDbLine
 10
650.0
 20
259.0
 30
0.0
 11
-650.0
 21
259.0
 31
0.0
  0
LINE
  5
13E
330
1B
100
AcDbEntity
 67
     1
  8
0
  6
Continuous
 62
     7
370
    25
100
AcDbLine
 10
-649.0
 20
260.0
 30
0.0
 11
649.0
 21
260.0
 31
0.0
  0
ARC
  5
13F
330
1B
100
AcDbEntity
 67
     1
  8
0
  6
Continuous
 62
     7
370
    25
100
AcDbCircle
 10
-175.0
 20
-145.0
 30
0.0
 40
65.41421356237316
100
AcDbArc
 50
180.0
 51
270.0
  0
ARC
  5
140
330
1B
100
AcDbEntity
 67
     1
  8
0
  6
Continuous
 62
     7
370
    25
100
AcDbCircle
 10
-175.0
 20
-145.0
 30
0.0
 40
64.70710678118664
100
AcDbArc
 50
180.0
 51
270.0
  0
ARC
  5
141
330
1B
100
AcDbEntity
 67
     1
  8
0
  6
Continuous
 62
     7
370
    25
100
AcDbCircle
 10
-649.0
 20
-249.5857864376
 30
0.0
 40
1.000000000000571
100
AcDbArc
 50
180.0
 51
225.0
  0
ARC
  5
142
330
1B
100
AcDbEntity
 67
     1
  8
0
  6
Continuous
 62
     7
370
    25
100
AcDbCircle
 10
175.0
 20
-145.0
 30
0.0
 40
65.41421356237319
100
AcDbArc
 50
270.0
 51
0.0
  0
ARC
  5
143
330
1B
100
AcDbEntity
 67
     1
  8
0
  6
Continuous
 62
     7
370
    25
100
AcDbCircle
 10
175.0
 20
75.0
 30
0.0
 40
65.4142135623732
100
AcDbArc
 50
0.0
 51
90.0
  0
ARC
  5
144
330
1B
100
AcDbEntity
 67
     1
  8
0
  6
Continuous
 62
     7
370
    25
100
AcDbCircle
 10
-175.0
 20
75.0
 30
0.0
 40
65.41421356237323
100
AcDbArc
 50
90.0
 51
180.0
  0
ARC
  5
145
330
1B
100
AcDbEntity
 67
     1
  8
0
  6
Continuous
 62
     7
370
    25
100
AcDbCircle
 10
649.0
 20
-249.5857864376
 30
0.0
 40
1.000000000000249
100
AcDbArc
 50
315.0
 51
360.0
  0
ARC
  5
146
330
1B
100
AcDbEntity
 67
     1
  8
0
  6
Continuous
 62
     7
370
    25
100
AcDbCircle
 10
175.0
 20
-145.0
 30
0.0
 40
64.70710678118661
100
AcDbArc
 50
270.0
 51
0.0
  0
ARC
  5
147
330
1B
100
AcDbEntity
 67
     1
  8
0
  6
Continuous
 62
     7
370
    25
100
AcDbCircle
 10
-175.0
 20
75.0
 30
0.0
 40
64.70710678118662
100
AcDbArc
 50
90.0
 51
180.0
  0
ARC
  5
148
330
1B
100
AcDbEntity
 67
     1
  8
0
  6
Continuous
 62
     7
370
    25
100
AcDbCircle
 10
-609.5857864376
 20
-289.0
 30
0.0
 40
1.000000000000284
100
AcDbArc
 50
225.0
 51
270.0
  0
ARC
  5
149
330
1B
100
AcDbEntity
 67
     1
  8
0
  6
Continuous
 62
     7
370
    25
100
AcDbCircle
 10
609.5857864376
 20
-289.0
 30
0.0
 40
1.000000000000398
100
AcDbArc
 50
270.0
 51
315.0
  0
ARC
  5
14A
330
1B
100
AcDbEntity
 67
     1
  8
0
  6
Continuous
 62
     7
370
    25
100
AcDbCircle
 10
175.0
 20
75.0
 30
0.0
 40
64.70710678118664
100
AcDbArc
 50
0.0
 51
90.0
  0
ARC
  5
14B
330
1B
100
AcDbEntity
 67
     1
  8
0
  6
Continuous
 62
     7
370
    25
100
AcDbCircle
 10
-175.0
 20
75.0
 30
0.0
 40
60.29289321881349
100
AcDbArc
 50
90.0
 51
180.0
  0
ARC
  5
14C
330
1B
100
AcDbEntity
 67
     1
  8
0
  6
Continuous
 62
     7
370
    25
100
AcDbCircle
 10
-175.0
 20
-145.0
 30
0.0
 40
60.29289321881345
100
AcDbArc
 50
180.0
 51
270.0
  0
ARC
  5
14D
330
1B
100
AcDbEntity
 67
     1
  8
0
  6
Continuous
 62
     7
370
    25
100
AcDbCircle
 10
175.0
 20
75.0
 30
0.0
 40
60.29289321881345
100
AcDbArc
 50
0.0
 51
90.0
  0
ARC
  5
14E
330
1B
100
AcDbEntity
 67
     1
  8
0
  6
Continuous
 62
     7
370
    25
100
AcDbCircle
 10
175.0
 20
-145.0
 30
0.0
 40
60.29289321881342
100
AcDbArc
 50
270.0
 51
0.0
  0
ARC
  5
14F
330
1B
100
AcDbEntity
 67
     1
  8
0
  6
Continuous
 62
     7
370
    25
100
AcDbCircle
 10
-175.0
 20
75.0
 30
0.0
 40
60.00000000000011
100
AcDbArc
 50
90.0
 51
180.0
  0
ARC
  5
150
330
1B
100
AcDbEntity
 67
     1
  8
0
  6
Continuous
 62
     7
370
    25
100
AcDbCircle
 10
175.0
 20
75.0
 30
0.0
 40
60.00000000000004
100
AcDbArc
 50
0.0
 51
90.0
  0
ARC
  5
151
330
1B
100
AcDbEntity
 67
     1
  8
0
  6
Continuous
 62
     7
370
    25
100
AcDbCircle
 10
175.0
 20
-145.0
 30
0.0
 40
60.00000000000011
100
AcDbArc
 50
270.0
 51
0.0
  0
ARC
  5
152
330
1B
100
AcDbEntity
 67
     1
  8
0
  6
Continuous
 62
     7
370
    25
100
AcDbCircle
 10
-175.0
 20
-145.0
 30
0.0
 40
60.00000000000011
100
AcDbArc
 50
180.0
 51
270.0
  0
ARC
  5
153
330
1B
100
AcDbEntity
 67
     1
  8
0
  6
Continuous
 62
     7
370
    25
100
AcDbCircle
 10
649.0
 20
259.0
 30
0.0
 40
1.0
100
AcDbArc
 50
0.0
 51
90.0
  0
ARC
  5
154
330
1B
100
AcDbEntity
 67
     1
  8
0
  6
Continuous
 62
     7
370
    25
100
AcDbCircle
 10
649.0
 20
249.0
 30
0.0
 40
1.000000000000028
100
AcDbArc
 50
270.0
 51
360.0
  0
ARC
  5
155
330
1B
100
AcDbEntity
 67
     1
  8
0
  6
Continuous
 62
     7
370
    25
100
AcDbCircle
 10
-649.0
 20
259.0
 30
0.0
 40
1.0
100
AcDbArc
 50
90.0
 51
180.0
  0
ARC
  5
156
330
1B
100
AcDbEntity
 67
     1
  8
0
  6
Continuous
 62
     7
370
    25
100
AcDbCircle
 10
-649.0
 20
249.0
 30
0.0
 40
1.000000000000028
100
AcDbArc
 50
180.0
 51
270.0
  0
VIEWPORT
  5
3AD
330
1B
100
AcDbEntity
 67
     1
  8
0
100
AcDbViewport
 10
0.0
 20
0.0
 30
0.0
 40
205.6
 41
156.0
 68
     1
 69
     1
 12
0.0
 22
-32.5
 13
0.0
 23
0.0
 14
10.0
 24
10.0
 15
10.0
 25
10.0
 16
0.0
 26
0.0
 36
1.0
 17
0.0
 27
0.0
 37
0.0
 42
50.0
 43
0.0
 44
0.0
 45
1006.1089494163
 50
0.0
 51
0.0
 72
   100
 90
   557152
  1

281
     0
 71
     1
 74
     0
110
0.0
120
0.0
130
0.0
111
1.0
121
0.0
131
0.0
112
0.0
122
1.0
132
0.0
 79
     0
146
0.0
  0
ENDSEC
  0
SECTION
  2
OBJECTS
  0
DICTIONARY
  5
C
330
0
100
AcDbDictionary
281
     1
  3
ACAD_GROUP
350
D
  3
ACAD_LAYOUT
350
1A
  3
ACAD_MLINESTYLE
350
17
  3
ACAD_PLOTSETTINGS
350
19
  3
ACAD_PLOTSTYLENAME
350
E
  3
ACAD_SCALELIST
350
47
  0
DICTIONARY
  5
D
102
{ACAD_REACTORS
330
C
102
}
330
C
100
AcDbDictionary
281
     1
  0
DICTIONARY
  5
1A
102
{ACAD_REACTORS
330
C
102
}
330
C
100
AcDbDictionary
281
     1
  3
_Front
350
1FA
  3
_Isometric
350
260
  3
_Left
350
26
  3
_Right
350
1A7
  3
_Top
350
1E
  3
Model
350
22
  0
DICTIONARY
  5
17
102
{ACAD_REACTORS
330
C
102
}
330
C
100
AcDbDictionary
281
     1
  3
Standard
350
18
  0
DICTIONARY
  5
19
102
{ACAD_REACTORS
330
C
102
}
330
C
100
AcDbDictionary
281
     1
  0
ACDBDICTIONARYWDFLT
  5
E
102
{ACAD_REACTORS
330
C
102
}
330
C
100
AcDbDictionary
281
     1
  3
Normal
350
F
100
AcDbDictionaryWithDefault
340
F
  0
DICTIONARY
  5
47
102
{ACAD_REACTORS
330
C
102
}
330
C
100
AcDbDictionary
281
     1
  3
A0
350
48
  3
A1
350
49
  3
A2
350
4A
  3
A3
350
4B
  3
A4
350
4C
  3
A5
350
4D
  3
A6
350
4E
  3
A7
350
4F
  3
A8
350
50
  3
A9
350
51
  3
B0
350
52
  3
B1
350
53
  3
B2
350
54
  3
B3
350
55
  3
B4
350
56
  3
B5
350
57
  3
B6
350
58
  3
B7
350
59
  3
B8
350
5A
  3
B9
350
5B
  3
C0
350
5C
  3
C1
350
5D
  3
C2
350
5E
  3
C3
350
5F
  3
C4
350
60
  3
C5
350
61
  3
C6
350
62
  3
C7
350
63
  3
C8
350
64
  3
C9
350
65
  3
D0
350
66
  3
D1
350
67
  3
D2
350
68
  0
LAYOUT
  5
1FA
102
{ACAD_REACTORS
330
1A
102
}
330
1A
100
AcDbPlotSettings
  1

  2
none_device
  4
ISO_A4_(210.00_x_297.00_MM)
  6

 40
7.5
 41
20.0
 42
7.5
 43
20.0
 44
210.0
 45
297.0
 46
0.0
 47
0.0
 48
0.0
 49
0.0
140
0.0
141
0.0
142
1.0
143
5.0583657588
 70
   688
 72
     1
 73
     1
 74
     1
  7

 75
     0
147
0.1976923077
148
650.0
149
290.0
100
AcDbLayout
  1
_Front
 70
     1
 71
     4
 10
0.0
 20
0.0
 11
0.0
 21
0.0
 12
0.0
 22
0.0
 32
0.0
 14
0.0
 24
0.0
 34
0.0
 15
0.0
 25
0.0
 35
0.0
146
0.0
 13
0.0
 23
0.0
 33
0.0
 16
1.0
 26
0.0
 36
0.0
 17
0.0
 27
1.0
 37
0.0
 76
     0
330
1F9
331
3B3
  0
LAYOUT
  5
260
102
{ACAD_REACTORS
330
1A
102
}
330
1A
100
AcDbPlotSettings
  1

  2
none_device
  4
ISO_A4_(210.00_x_297.00_MM)
  6

 40
7.5
 41
20.0
 42
7.5
 43
20.0
 44
210.0
 45
297.0
 46
0.0
 47
0.0
 48
0.0
 49
0.0
140
0.0
141
0.0
142
1.0
143
5.0583657588
 70
   688
 72
     1
 73
     1
 74
     1
  7

 75
     0
147
0.1976923077
148
650.0
149
290.0
100
AcDbLayout
  1
_Isometric
 70
     1
 71
     5
 10
0.0
 20
0.0
 11
0.0
 21
0.0
 12
0.0
 22
0.0
 32
0.0
 14
0.0
 24
0.0
 34
0.0
 15
0.0
 25
0.0
 35
0.0
146
0.0
 13
0.0
 23
0.0
 33
0.0
 16
1.0
 26
0.0
 36
0.0
 17
0.0
 27
1.0
 37
0.0
 76
     0
330
25F
331
3B5
  0
LAYOUT
  5
26
102
{ACAD_REACTORS
330
1A
102
}
330
1A
100
AcDbPlotSettings
  1

  2
none_device
  4
ISO_A4_(210.00_x_297.00_MM)
  6

 40
7.5
 41
20.0
 42
7.5
 43
20.0
 44
210.0
 45
297.0
 46
0.0
 47
0.0
 48
0.0
 49
0.0
140
0.0
141
0.0
142
1.0
143
5.0583657588
 70
   688
 72
     1
 73
     1
 74
     1
  7

 75
     0
147
0.1976923077
148
650.0
149
290.0
100
AcDbLayout
  1
_Left
 70
     1
 71
     2
 10
0.0
 20
0.0
 11
0.0
 21
0.0
 12
0.0
 22
0.0
 32
0.0
 14
0.0
 24
0.0
 34
0.0
 15
0.0
 25
0.0
 35
0.0
146
0.0
 13
0.0
 23
0.0
 33
0.0
 16
1.0
 26
0.0
 36
0.0
 17
0.0
 27
1.0
 37
0.0
 76
     0
330
23
331
3AF
  0
LAYOUT
  5
1A7
102
{ACAD_REACTORS
330
1A
102
}
330
1A
100
AcDbPlotSettings
  1

  2
none_device
  4
ISO_A4_(210.00_x_297.00_MM)
  6

 40
7.5
 41
20.0
 42
7.5
 43
20.0
 44
210.0
 45
297.0
 46
0.0
 47
0.0
 48
0.0
 49
0.0
140
0.0
141
0.0
142
1.0
143
5.0583657588
 70
   688
 72
     1
 73
     1
 74
     1
  7

 75
     0
147
0.1976923077
148
650.0
149
290.0
100
AcDbLayout
  1
_Right
 70
     1
 71
     3
 10
0.0
 20
0.0
 11
0.0
 21
0.0
 12
0.0
 22
0.0
 32
0.0
 14
0.0
 24
0.0
 34
0.0
 15
0.0
 25
0.0
 35
0.0
146
0.0
 13
0.0
 23
0.0
 33
0.0
 16
1.0
 26
0.0
 36
0.0
 17
0.0
 27
1.0
 37
0.0
 76
     0
330
1A6
331
3B1
  0
LAYOUT
  5
1E
102
{ACAD_REACTORS
330
1A
102
}
330
1A
100
AcDbPlotSettings
  1

  2
none_device
  4
ISO_A4_(210.00_x_297.00_MM)
  6

 40
7.5
 41
20.0
 42
7.5
 43
20.0
 44
210.0
 45
297.0
 46
0.0
 47
0.0
 48
0.0
 49
0.0
140
0.0
141
0.0
142
1.0
143
5.0583657588
 70
   688
 72
     1
 73
     1
 74
     1
  7

 75
     0
147
0.1976923077
148
650.0
149
290.0
100
AcDbLayout
  1
_Top
 70
     1
 71
     1
 10
-751.1673151751
 20
-327.9377431907
 11
751.1673151751
 21
734.3190661479
 12
0.0
 22
0.0
 32
0.0
 14
-650.0
 24
-290.0
 34
0.0
 15
650.0
 25
260.0
 35
0.0
146
0.0
 13
0.0
 23
0.0
 33
0.0
 16
1.0
 26
0.0
 36
0.0
 17
0.0
 27
1.0
 37
0.0
 76
     0
330
1B
331
3AD
  0
LAYOUT
  5
22
102
{ACAD_REACTORS
330
1A
102
}
330
1A
100
AcDbPlotSettings
  1

  2
none_device
  4
ANSI_A_(11.00_x_8.50_Inches)
  6

 40
6.35
 41
19.05
 42
6.35000508
 43
19.05000254
 44
279.4
 45
215.9
 46
133.34999746
 47
95.81514873
 48
0.0
 49
0.0
140
0.0
141
0.0
142
0.0083769231
143
1.0
 70
  1696
 72
     0
 73
     0
 74
     0
  7

 75
     0
147
0.0179189148
148
-1300.4909072572
149
0.0
100
AcDbLayout
  1
Model
 70
     1
 71
     0
 10
0.0
 20
0.0
 11
420.0
 21
297.0
 12
0.0
 22
0.0
 32
0.0
 14
-650.0
 24
-65.0
 34
0.0
 15
650.0
 25
0.0
 35
0.0
146
0.0
 13
0.0
 23
0.0
 33
0.0
 16
1.0
 26
0.0
 36
0.0
 17
0.0
 27
1.0
 37
0.0
 76
     0
330
1F
331
29
  0
MLINESTYLE
  5
18
102
{ACAD_REACTORS
330
17
102
}
330
17
100
AcDbMlineStyle
  2
Standard
 70
     0
  3

 62
   256
 51
90.0
 52
90.0
 71
     2
 49
0.5
 62
   256
  6
BYLAYER
 49
-0.5
 62
   256
  6
BYLAYER
  0
ACDBPLACEHOLDER
  5
F
102
{ACAD_REACTORS
330
E
102
}
330
E
  0
SCALE
  5
48
102
{ACAD_REACTORS
330
47
102
}
330
47
100
AcDbScale
 70
     0
300
1:1
140
1.0
141
1.0
290
     1
  0
SCALE
  5
49
102
{ACAD_REACTORS
330
47
102
}
330
47
100
AcDbScale
 70
     0
300
1:2
140
1.0
141
2.0
290
     0
  0
SCALE
  5
4A
102
{ACAD_REACTORS
330
47
102
}
330
47
100
AcDbScale
 70
     0
300
1:4
140
1.0
141
4.0
290
     0
  0
SCALE
  5
4B
102
{ACAD_REACTORS
330
47
102
}
330
47
100
AcDbScale
 70
     0
300
1:5
140
1.0
141
5.0
290
     0
  0
SCALE
  5
4C
102
{ACAD_REACTORS
330
47
102
}
330
47
100
AcDbScale
 70
     0
300
1:8
140
1.0
141
8.0
290
     0
  0
SCALE
  5
4D
102
{ACAD_REACTORS
330
47
102
}
330
47
100
AcDbScale
 70
     0
300
1:10
140
1.0
141
10.0
290
     0
  0
SCALE
  5
4E
102
{ACAD_REACTORS
330
47
102
}
330
47
100
AcDbScale
 70
     0
300
1:16
140
1.0
141
16.0
290
     0
  0
SCALE
  5
4F
102
{ACAD_REACTORS
330
47
102
}
330
47
100
AcDbScale
 70
     0
300
1:20
140
1.0
141
20.0
290
     0
  0
SCALE
  5
50
102
{ACAD_REACTORS
330
47
102
}
330
47
100
AcDbScale
 70
     0
300
1:30
140
1.0
141
30.0
290
     0
  0
SCALE
  5
51
102
{ACAD_REACTORS
330
47
102
}
330
47
100
AcDbScale
 70
     0
300
1:40
140
1.0
141
40.0
290
     0
  0
SCALE
  5
52
102
{ACAD_REACTORS
330
47
102
}
330
47
100
AcDbScale
 70
     0
300
1:50
140
1.0
141
50.0
290
     0
  0
SCALE
  5
53
102
{ACAD_REACTORS
330
47
102
}
330
47
100
AcDbScale
 70
     0
300
1:100
140
1.0
141
100.0
290
     0
  0
SCALE
  5
54
102
{ACAD_REACTORS
330
47
102
}
330
47
100
AcDbScale
 70
     0
300
2:1
140
2.0
141
1.0
290
     0
  0
SCALE
  5
55
102
{ACAD_REACTORS
330
47
102
}
330
47
100
AcDbScale
 70
     0
300
4:1
140
4.0
141
1.0
290
     0
  0
SCALE
  5
56
102
{ACAD_REACTORS
330
47
102
}
330
47
100
AcDbScale
 70
     0
300
8:1
140
8.0
141
1.0
290
     0
  0
SCALE
  5
57
102
{ACAD_REACTORS
330
47
102
}
330
47
100
AcDbScale
 70
     0
300
10:1
140
10.0
141
1.0
290
     0
  0
SCALE
  5
58
102
{ACAD_REACTORS
330
47
102
}
330
47
100
AcDbScale
 70
     0
300
100:1
140
100.0
141
1.0
290
     0
  0
SCALE
  5
59
102
{ACAD_REACTORS
330
47
102
}
330
47
100
AcDbScale
 70
     0
300
1/128" = 1'-0"
140
0.0078125
141
12.0
290
     0
  0
SCALE
  5
5A
102
{ACAD_REACTORS
330
47
102
}
330
47
100
AcDbScale
 70
     0
300
1/64" = 1'-0"
140
0.015625
141
12.0
290
     0
  0
SCALE
  5
5B
102
{ACAD_REACTORS
330
47
102
}
330
47
100
AcDbScale
 70
     0
300
1/32" = 1'-0"
140
0.03125
141
12.0
290
     0
  0
SCALE
  5
5C
102
{ACAD_REACTORS
330
47
102
}
330
47
100
AcDbScale
 70
     0
300
1/16" = 1'-0"
140
0.0625
141
12.0
290
     0
  0
SCALE
  5
5D
102
{ACAD_REACTORS
330
47
102
}
330
47
100
AcDbScale
 70
     0
300
3/32" = 1'-0"
140
0.09375
141
12.0
290
     0
  0
SCALE
  5
5E
102
{ACAD_REACTORS
330
47
102
}
330
47
100
AcDbScale
 70
     0
300
1/8" = 1'-0"
140
0.125
141
12.0
290
     0
  0
SCALE
  5
5F
102
{ACAD_REACTORS
330
47
102
}
330
47
100
AcDbScale
 70
     0
300
3/16" = 1'-0"
140
0.1875
141
12.0
290
     0
  0
SCALE
  5
60
102
{ACAD_REACTORS
330
47
102
}
330
47
100
AcDbScale
 70
     0
300
1/4" = 1'-0"
140
0.25
141
12.0
290
     0
  0
SCALE
  5
61
102
{ACAD_REACTORS
330
47
102
}
330
47
100
AcDbScale
 70
     0
300
3/8" = 1'-0"
140
0.375
141
12.0
290
     0
  0
SCALE
  5
62
102
{ACAD_REACTORS
330
47
102
}
330
47
100
AcDbScale
 70
     0
300
1/2" = 1'-0"
140
0.5
141
12.0
290
     0
  0
SCALE
  5
63
102
{ACAD_REACTORS
330
47
102
}
330
47
100
AcDbScale
 70
     0
300
3/4" = 1'-0"
140
0.75
141
12.0
290
     0
  0
SCALE
  5
64
102
{ACAD_REACTORS
330
47
102
}
330
47
100
AcDbScale
 70
     0
300
1" = 1'-0"
140
1.0
141
12.0
290
     0
  0
SCALE
  5
65
102
{ACAD_REACTORS
330
47
102
}
330
47
100
AcDbScale
 70
     0
300
1-1/2" = 1'-0"
140
1.5
141
12.0
290
     0
  0
SCALE
  5
66
102
{ACAD_REACTORS
330
47
102
}
330
47
100
AcDbScale
 70
     0
300
3" = 1'-0"
140
3.0
141
12.0
290
     0
  0
SCALE
  5
67
102
{ACAD_REACTORS
330
47
102
}
330
47
100
AcDbScale
 70
     0
300
6" = 1'-0"
140
6.0
141
12.0
290
     0
  0
SCALE
  5
68
102
{ACAD_REACTORS
330
47
102
}
330
47
100
AcDbScale
 70
     0
300
1'-0" = 1'-0"
140
12.0
141
12.0
290
     0
  0
ENDSEC
  0
EOF
